Alexisonfire - Charlie Sheen Vs Henry Rollins Chords & Tabs

 

Charlie Sheen Vs Henry Rollins Chords & Tabs

Alexisonfire Chords & Tabs

Version: 1 Type: Tab

Charlie Sheen Vs Henry Rollins Tab

   
Ok this song is in drop flat


E----------|
B----------|
G----------|
D----------|
A----------|
E----------|

Intro Guitar 1
-----------|
-----------|
-----999---|  x3
-----999---|
-----777---|
-----------|

G2
----------------|
-878787878787-87|
----------------|
----------------|
----------------|
----------------|

G1(harmonics)
-------------|
--------7----|
----5--------|
-------------|
-------------|
-------------|

G2
------15--14-|
-------------|
-------------|
-------------|
-------------|
-------------|
Verse 1/chorus
G1
/--------------------------------------------------|
|--------------------------------------------------|
|-----------------2222222222222222-5555555555555555|
|2222222222222222-2222222222222222-5555555555555555|
|2222222222222222-0000000000000000-3333333333333333|
000000000000000----------------------------------|


g1
---------------|
---------------|
---------------|
---------------|
---5--5--55/7|-|
-22-22-22------|
[ Tab from: http://www.guitartabs.cc/tabs/a/alexisonfire/charlie_sheen_vs_henry_rollins_tab.html ]
Verse 1/chorus
G1
/--------------------------------------------------|
|--------------------------------------------------|
|-----------------2222222222222222-5555555555555555|
|2222222222222222-2222222222222222-5555555555555555|
|2222222222222222-0000000000000000-3333333333333333|
000000000000000----------------------------------|

g1
--------------|
--------------|
55555555-555-5|
55555555-555-5| whole verse x2
33333333-333-3|
--------------|

verse 2

-----------------------------------------------------------------|
-----------------------------------------------------8p7---8p7---|
2-2-222-2-222-2-222-2-5/7-2-2-222-2-222-2-222-2-5/7----7h9----7h9|
2-2-222-2-222-2-222-2-5/7-2-2-222-2-222-2-222-2-5/7--------------|
0-0-000-0-000-0-000-0-3/5-0-0-000-0-000-0-000-0-3/5--------------|
-----------------------------------------------------------------|

-----------------------------|
-----------------------------|
5/7-2-2-222-2-222-2-222-2-5/7|
5/7-2-2-222-2-222-2-222-2-5/7|
3/5-0-0-000-0-000-0-000-0-3/5|
-----------------------------|

verse 3
--------------------------------------------------|
----------8p7---8p7-------------------------------|
--7--7--7----7h9---7h9-----------------------7-9-7| x2
99-99-99-9------------7-9-7-5-5--7-9-7-5-7-9------|
--------------------------------------------------|
--------------------------------------------------|


that's mostly all you need to know btw play the second half of verse 1 when the other 
is playing verse 3