Alexisonfire - Accidents Chords & Tabs

 

Accidents Chords & Tabs

Alexisonfire Chords & Tabs

Version: 1 Type: Bass Tab 0 ratings
1 star 2 stars 3 stars 4 stars 5 stars
comments

Accidents Bass Tab

   
0:02                     X2
G-------------------------------------------------------------------|
D-------------------------------------------------------------------|
A----------------------------------4********************************|
E-1********************************---------------------------------|

0:22                     X6
G-------------------------------------------------------------------|
D-------------------------------------------------------------------|
A----------------------------------44444444444444444444444444444444-|
E-11111111111111111111111111111111----------------------------------|

1:18
G------------------------------------------------------------------|
D------------------------------------------------------------------|
A-111111111111-1-3-444444444444-111111111111-1-3-44444444-66666666-|
E------------------------------------------------------------------|

1:28                     X2
G----------------------------------------------------------------------|
D---------------------------33-11--------------------------------------|
A------------------33333333-------1-3-44444444444444444444444444444444-|
E-1111111111111111-----------------------------------------------------|

1:46                     X2
G-------------------------------------------------------------------|
D-------------------------------------------------------------------|
A----------------------------------4********************************|
E-1********************************---------------------------------|
[ Tab from: http://www.guitartabs.cc/tabs/a/alexisonfire/accidents_btab.html ]
2:05   (Solo)            x4
G-----------------------------------------------------------------|
D-6p5-------------6p5-------------6p5-------------6p5-------------|
A-----6-------6-8-----6-------6-8-----6-------6-8-----6-------6-8-|
E-------6-8-9-----------6-8-9-----------6-8-9-----------6-8-9-----|

2:25                     X2
G-------------------------------------------------------------------|
D-------------------------------------------------------------------|
A----------------------------------44444444444444444444444444444444-|
E-11111111111111111111111111111111----------------------------------|

2:45
G-----------------------------------------------------------------------|
D-----------------------------------------------------------------------|
A-----------------------------------------------------------------------|
E-11111111**11111111**11111111**11111111**11111111**11111111**11111111**|

3:05
G------------------------------------------------------------------|
D------------------------------------------------------------------|
A-111111111111-1-3-444444444444-111111111111-1-3-44444444-66666666-|
E------------------------------------------------------------------|

3:14                      X3
G----------------------------------------------------------------------|
D---------------------------33-11--------------------------------------|
A------------------33333333-------1-3-44444444444444444444444444444444-|
E-1111111111111111-----------------------------------------------------|

3:42
G----------------------------------------------------------------------|
D---------------------------33-11--------------------------------------|
A------------------33333333-------1-3-4*******************************-|
E-1111111111111111-----------------------------------------------------|

Bass Ends 3:46

Song Ends 4:09
Comments