Alexi Murdoch - Orange Sky Chords & Tabs

 

Orange Sky Chords & Tabs

Alexi Murdoch Chords & Tabs

Version: 2 Type: Chords 0 ratings
1 star 2 stars 3 stars 4 stars 5 stars
comments

Orange Sky Chords

   
----------------------------------------------------------------------------
                         Alexi Murdoch - Orange Sky
----------------------------------------------------------------------------

Tabbed by: therisingtide
Email: keundog@hotmail.com

Off of Garden State/The O.C. soundtracks.  Nice, slow, easy, relaxing song.  Enjoy.


Tuning: EADGBe  (capo 2)


 Intro:

     C/G        C/G         F

e|----0-----|----0----------0--------|
B|----0h1---|----1----------1--------|
G|----0-----|----0----------2--------|
D|----2-----|----2----------3--------|
A|----3-----|----3----------3--------|
E|----3-----|----3----------x--------|

 Verse:

  C/G          F

e|--0----------0------------|
B|--1----------1------------|
G|--0----------2------------|
D|--0h2--------3------------|
A|--3----------3------0h1---|
E|--3----------x------------|

 Chorus:

 "In your love, my salvation lies...."
[ Tab from: http://www.guitartabs.cc/tabs/a/alexi_murdoch/orange_sky_crd_ver_2.html ]
      C         F

e|----0---------1---------------|
B|----1---------1---------------|
G|----0---------2---------------|
D|----2---------3---------------|
A|----3---------3---------------|
E|----0---------1---------------|

 Bridge:

 "but sister you know...."

    Am        Em     or    C           F

e|---0-------|--0---------0----|-------1------------|
B|---1-------|--0---------1----|-------1------------|
G|---2-------|--0----or---0----|-------2------------|
D|---2-------|--2---------2----|-------3------------|
A|---0-------|--2---------3----|-------3------------|
E|---x-------|--0--------------|-------1------------|


Intro
Verse 1
Verse 2
Chorus
Bridge
Verse 3
Chorus
Verse
Fadeout


| /  slide up
| \  slide down
| h  hammer-on
| p  pull-off
| ~  vibrato
| +  harmonic
| x  Mute note
===============================================================================

This is my second tab, email me if there are problems
Comments