Alex Parks - Looking For Water Chords & Tabs

 

Looking For Water Chords & Tabs

Alex Parks Chords & Tabs

Version: 1 Type: Chords

Looking For Water Chords

   
Looking for Water - Alex Parks

I notated there was no tabs ANYWHERE for this songs, and its a canny good song aswel!
this is my first ever tab, so be kind on the comments!

C                        F
Some days are harder than others
               C
Trying to get things done
                         F 
Trying to make sense of the way I'm feeling
                   C
Looking for sanctuary I find your love?

                      Am                      F
You're in my head, you're in my heart
                     Em                        Em7
Too busy to stall, too late to start
                              F
I don't wanna hear u crying
                               G
When I have to say goodbye.

[Chorus]
C                         G
Baby u won't listen but I really need you to
            Am                                  F
And maybe you dont hear when I get to talk to you
C                              G
I know that u need me more than I need you
       Am               
But don't ask so much of me
      F
It's what you always do.
[ Tab from: http://www.guitartabs.cc/tabs/a/alex_parks/looking_for_water_crd.html ]
e|-------------4------------------6----------------1-------------------------|
B|-------------4------------------6----------------1-------------------------|
G|-------------4------------------7----------------2-------------------------|
D|-------------6------------------8----------------3-------------------------|
A|-------------6------------------8----------------3-------------------------|
E|-------------4------------------6----------------1-------------------------|        
 Looking for water,        In a well    youve run dry


 C                      F
Some people are stronger than others
                        C
One smile can make some people cry
                           F
Hiding away won't make it easier
                         C        
Taking you're hand but I, ask you why
                      G                      F
You're in my head, you're in my heart
                     Em                        Em7
Too busy to stop [stall], too late to start
                              F
I don't wanna hear u crying
                               G
When I have to say goodbye.

[Chorus]
C                         G
Baby u won't listen but I really need you to
            Am                                  F
And maybe you dont hear when I get to talk to you
C                              G
I know that u need me more than I need you
       Am               
But don't ask so much of me
      F
It's what you always do.

e|-------------4------------------6----------------1-------------------------|
B|-------------4------------------6----------------1-------------------------|
G|-------------4------------------7----------------2-------------------------|
D|-------------6------------------8----------------3-------------------------|
A|-------------6------------------8----------------3-------------------------|
E|-------------4------------------6----------------1-------------------------|        
 Looking for water,        In a well    youve run dry