Alex Lloyd - Green Chords & Tabs

 

Green Chords & Tabs

Alex Lloyd Chords & Tabs

Version: 1 Type: Tab 0 ratings
1 star 2 stars 3 stars 4 stars 5 stars
comments

Green Tab

   
Alex Lloyd - Green 

Now i know that i added a different version of this it's becuase i 
added the wrong version,  but it should still sound the same as this
one.  But this is a much easier version to play!  Play this one.

Chords Used:

    G   C   Am  Gm  Cm  F   A#  D5
  
E|--3---0---0---3---3---1---1---1|
B|--0---1---1---3---4---1---3---2|
G|--0---0---2---3---5---2---3---1|
D|--0---2---2---0---5---3---3---3|
A|--2---3---0---x---0---0---1---0|
E|--3---0---0---x---0---0---0---0|

Riff played on intro and over verses

E|----3-----3-----3-----3-----3-----3-----3-----3---|------3-----------3-----|
B|--0---0-1---1-3---3-1---1-0---0-1---1-3---3-1---1-|--1-------1---1-------1-|
G|--------------------------------------------------|2---2---2---2---2---2---|
D|--------------------------------------------------|------------------------|
A|--------------------------------------------------|------------------------|
E|--------------------------------------------------|------------------------|

G    C             G         C       G
This house is your own still living alone
   C              G       C            Am
It don't make you sad but I think it's good to be green
G   C         G        C              G
The summer is gone and spring don't belong
    C          G        C           Am
The traces are here for long winter I miss the green
   C
It used to be clean

Gm
And if you want to be free
Cm
Please don't fall for me
F          A#     F        Gm
I could be anyone but your friend
Gm
And if you open the door
Cm
I'll give a whole lot more
F          A#      F     Cm     A
I could be anyone, anyone       yeah

G   C           G           C         G
  Assumption is good though not likelihood
       C          G      C          Am
And my feeling is true I want to be living with you
G   C          G          C            G
The truth it begins we're breathing it in
     C          G        C            Am
With shadows of doubt in time we will all miss the green
   C
It used to be clean

Gm
And if you want to be free
Cm
Please don't fall for me
F          A#     F        Gm
I could be anyone but your friend
Gm
And if you open the door
Cm
I'll give a whole lot more
F          A#     F        Cm
I could be anyone but your friend
[ Tab from: http://www.guitartabs.cc/tabs/a/alex_lloyd/green_tab.html ]
   D#      A#      F             Cm
Anyone, anyone, anyone, no no no no
   D#      A#      F             Gm
Anyone, anyone, anyone, no no no no

Gm
And if you want to be free
Cm
Please don't fall for me
F          A#     F        Gm
I could be anyone but your friend
Gm
And if you open the door
Cm
I'll give a whole lot more
F          A#     F        Cm
I could be anyone but your friend

   D#      A#      F             Cm
Anyone, anyone, anyone, no no no no
   D#      A#      F             
Anyone, anyone, anyone, yeah

Cm                      D#
Seeing is believing the feeling is deceiving
    A#                           F
You know it's the truth when you find that you can't talk
Cm              D#
Leaving on this all into chaos
A#                   F			  Cm
Seeing is feeling is seeing is feeling is you

   D#      A#      F             Cm
Anyone, anyone, anyone, no no no no
    (feeling is you)
   D#      A#      F        Cm    
Anyone, anyone, anyone, yeah


It may not sound exactly right but most of it is right!  Here it is 
Green by alex lloyd.  Try add in some extra strings with a few -0-'s
it may amke it souund better!

Intro

e|----3-------3-------3-----3----|
b|--0---0-0h1---1-1/3---3-1---1--|
g|-------------------------------|
d|-------------------------------|
a|-------------------------------|
E|-------------------------------|

Verse (Chords)

"This House Is Your Own.."

e|-------------------------------|
b|-------------------------------|
g|--4--5--4--5-------------------|
d|--5--5--5--5-------------------|
a|--5--3--5--3-------------------|
E|--3--3--3--3-------------------|

"It's Good To Be Green.."

e|-------------------------------|
b|-------------------------------|
g|--6----------------------------|
d|--7----------------------------|
a|--7----------------------------|
E|--5----------------------------|

"Used To Be Clean.."

e|-------------------------------|
b|-------------------------------|
g|--5----------------------------|
d|--5----------------------------|
a|--3----------------------------|
E|--3----------------------------|

Post-Chorus

"If You Want To Be.."

e|-------------------------------|
b|-------------------------------|
g|--4--5--2--6--6----------------|
d|--5--5--3--8--7----------------|
a|--5--3--3--8--7----------------|
E|--3--3--1--6--5----------------|

"Yeah.."

e|-------------------------------|
b|-------------------------------|
g|--5--6-------------------------|
d|--5--7-------------------------|
a|--3--7-------------------------|
E|--3--5-------------------------|

Chorus

"Anyone, Anyone.."

e|-------------------------------|
b|-------------------------------|
g|--4--8--3--2-------------------|
d|--5--8--3--3-------------------|
a|--5--6--1--3-------------------|
E|--3--6--1--1-------------------|

This album is slowly growing on me, I love it :)
Comments