Alchemy - Changes Live Chords & Tabs

 

Changes Live Chords & Tabs

Alchemy Chords & Tabs

Version: 1 Type: Tab 0 ratings
1 star 2 stars 3 stars 4 stars 5 stars
comments

Changes Live Tab

Standard EADGBE tuning just backwards tabbing.......rOCK ON ALCHEMY

  Intro--

  E-|---------------------------------------------------------------------|
  A-|5-5-5-5-5-5-5-5-5-5-5-5-5-5-5-5---5-5-5-5-5-5-5-5--------------------|
  D-| 7-7-7-7-4-4-4-4-5-5-5-5-5-5-5-5---7-7-7-7-4-4-4-4--5-5-5-5-5-5-5-5--|
  G-|-----------------------------------------------------7-7-7-7-7-7-7-7-|
  B-|---------------------------------------------------------------------|
  E-|---------------------------------------------------------------------|


  E-|------------------------------------------------------3--------------|
  A-|5-5-5-5-5-5-5-5-5-5-5-5-5-5-5-5---5-5-5-5-5-5-5-5-------5------------|
  D-| 7-7-7-7-4-4-4-4-5-5-5-5-5-5-5-5---7-7-7-7-4-4-4-4--------5----------|
  G-|---------------------------------------------------------------------|
  B-|---------------------------------------------------------------------|
  E-|---------------------------------------------------------------------|

     Slight Pause...

    Verse--

  E-|-----------------5--5-5--5-5-5---------------7--7-7--7-7-7-----------|
  A-|----4--4--4-4-4--3--3-3--3-3-3--5--5--5-5-5--5--5-5--5-5-5-----------|
  D-|----2--2--2-2-2--3--3-3--3-3-3--7--7--7-7-7--5--5-5--5-5-5-----------|
  G-|----2--2--2-2-2-----------------7--7--7-7-7--------------------------|
  B-|---------------------------------------------------------------------|
  E-|---------------------------------------------------------------------|

  E-|-----------------5--5-5--5-5-5---------------------------------------|        X-3
  A-|----4--4--4-4-4--3--3-3--3-3-3--5--5--5-5-5------7--7--7-7-7--7--7-- |
  D-|----2--2--2-2-2--3--3-3--3-3-3--7--7--7-7-7------9--9--9-9-9--9--9---|
  G-|----2--2--2-2-2-----------------7--7--7-7-7------9--9--9-9-9--9--9---|
  B-|---------------------------------------------------------------------|
  E-|---------------------------------------------------------------------|


    Pre Chorus--
[ Tab from: http://www.guitartabs.cc/tabs/a/alchemy/changes_live_tab.html ]
  E-|------------------------5-----5-----------------------------------|
  A-|---4-4--4-4-4--4--4-4---3--5--7-----------------------------------|
  D-|---2-2--2-2-2--2--2-2---3--7--7-----------------------------------|
  G-|---2-2--2-2-2--2--2-2------7--------------------------------------|
  B-|------------------------------------------------------------------|
  E-|------------------------------------------------------------------|


  E-|------------------------5--------------------------------------------|
  A-|---4-4--4-4-4--4--4-4---3--5--7--------------------------------------|
  D-|---2-2--2-2-2--2--2-2---3--7--9--------------------------------------|
  G-|---2-2--2-2-2--2--2-2------7--9--------------------------------------|
  B-|---------------------------------------------------------------------|
  E-|---------------------------------------------------------------------|


    Verse--X-2

    Chorus--

  E-|-------------------------------3--3--3-3-3--------------|
  A-|--7--7--7-7-7---4-4--4-4-4-4---5--5--5-5-5--5--5--5-5-5-|
  D-|--9--9--9-9-9---2-2--2-2-2-2---5--5--5-5-5--7--7--7-7-7-|
  G-|--9--9--9-9-9---2-2--2-2-2-2----------------7--7--7-7-7-|
  B-|--------------------------------------------------------|
  E-|--------------------------------------------------------|           X-2

  E-|-------------------------------3--3--3-3-3-\\-5--5--5-5-|
  A-|--7--7--7-7-7---4-4--4-4-4-4---5--5--5-5-5-\\-7--7--7-7-|
  D-|--9--9--9-9-9---2-2--2-2-2-2---5--5--5-5-5-\\-7--7--7-7-|
  G-|--9--9--9-9-9---2-2--2-2-2-2----------------------------|
  B-|--------------------------------------------------------|
  E-|--------------------------------------------------------|


  Post Chorus--


  Chorus-X-2


 Verse Riff - X-1

 Then Short Solo--

 E-|----------------------------------------------------------------------|
 A-|----------------------------------------------------------------------|
 D-|----------------------------------------------------------------------|
 G-|--4--4--4-4-4-0-0-0-0-0-0-7--7--7-7-7-2-2-2-2-2-2-4-0-0-0-0-0-0-2-2-2-|

 E-|--------------------|
 A-|--------------------|
 D-|-----------------5--|
 G-|---4-4-4-4h5p4-2-0--|
Comments