Alastar - Chaos Chords & Tabs

 

Chaos Chords & Tabs

Alastar Chords & Tabs

Version: 1 Type: Tab

Chaos Tab

  
   <<|----------------------------------------------|>>
 <<<|      Chaos solo !!! by Philippe Labelle        |>>>
   <<|----------------------------------------------|>>

 

e|----------------------------------------------------------------|
B|--0-7-0-8-0-10-0-8-0-7-0-5----0-7-0-8-0-10-0-8-0-7-0-(5)--------|
G|----------------------------------------------------------------|     
D|----------------------------------------------------------------|
A|----------------------------------------------------------------|
E|----------------------------------------------------------------|

e|----------------------------------------------------------------|
B|--7-0-8-0-10-0-8-0-7-0-5--0-7-0-8-0-10-0-8-0-7-0-(12)-----------|
G|----------------------------------------------------------------|     
D|----------------------------------------------------------------|
A|----------------------------------------------------------------|
E|----------------------------------------------------------------|
[ Tab from: http://www.guitartabs.cc/tabs/a/alastar/chaos_tab.html ]
e|----------------------------------------------------------------|
B|--7-0-8-0-10-0-8-0-7-0-5--7-0-8-0-10-0-8-0-7-0-5----------------|
G|----------------------------------------------------------------|     
D|----------------------------------------------------------------|
A|----------------------------------------------------------------|
E|----------------------------------------------------------------| 

e|----------------------------------------------------------------|
B|--0-3-0-5-(x4)----0-1-0-3-(x4)----------------------------------|
G|----------------------------------------------------------------|     
D|----------------------------------------------------------------|
A|----------------------------------------------------------------|
E|----------------------------------------------------------------| 

e|----------------------------------------------------------------|
B|--0-2-0-4-0-3--0-5-0-6-0-8-0-6-0-5--0-7-0-8-0-10-0-8-0-7-0-(12)-|
G|----------------------------------------------------------------|     
D|----------------------------------------------------------------|
A|----------------------------------------------------------------|
E|----------------------------------------------------------------|


Tabbed by Philpunk
My e-mail-> eveyphil@hotmail.com , For comment or error detected...