Alanpo - The Moon Chords & Tabs

 

The Moon Chords & Tabs

Alanpo Chords & Tabs

Version: 2 Type: Tab 0 ratings
1 star 2 stars 3 stars 4 stars 5 stars
comments

The Moon Tab

Step 1.

Guitar 1.
E--0---2----|
B--1---1----|
G--2---2----|
D--2---0----|
A--0--------|
E-----------|


Guitar 2.
E-------------------------|
B------1---3(bend)--------|
G---2---------------------| play this once and then next once! and then play it again.
D-------------------------|
A-------------------------|
E-------------------------|

E--------5---3---0--------|
B-----1-------------------|
G--2----------------------|
D-------------------------|
A-------------------------|
E-------------------------|



Step 2.

Guitar 1.
E--0---2----|
B--1---1----|
G--2---2----|
D--2---0----|
A--0--------|
E-----------|
[ Tab from: http://www.guitartabs.cc/tabs/a/alanpo/the_moon_tab_ver_2.html ]
Guitar 2.
E-------------------------------|
B-------------------------------|
G-------2-----2-----------------|
D----2-----2------4---2--0--2---|   x2
A-------------------------------|
E-------------------------------|

Step 3.
Guitar 1.
E-1--3---0-0--------------|
B-1--3---1-1--------------|
G-2--4---0-2--------------|
D-3--5---2-2--------------|
A-3--5---3-0--------------|
E-1--3--------------------|

Guitar 2.

E-------------------------|
B-------1--0--1--3-5-3-1--|
G-----2------------------2|
D---3---------------------|
A-------------------------|
E-------------------------|

E-------------------------|
B-------1--0--1-3---------|
G-----2-----------0-------|
D---3---------------------|
A-------------------------|
E-------------------------|
Comments