Alanis Morissette - So Unsexy Chords & Tabs

 

So Unsexy Chords & Tabs

Alanis Morissette Chords & Tabs

Version: 2 Type: Tab 0 ratings
1 star 2 stars 3 stars 4 stars 5 stars
comments

So Unsexy Tab

   
This is the correct tabature... so don't get all jump bout it. :P

INTRO: 

    E                   E2
e|--0---0---0---0---0---0---------0---0---0---0---0---0----|
B|--0---0---0---0---0---0---------0---0---0---0---0---0----|
G|--13--13--13--13--13--11--------11--11--11--11--11--11---|
D|---------------------------------------------------------|
A|--11--11--11--11--11--9---------9---9---9---9---9---9----|
E|--0---0---0---0---0---0---------0---0---0---0---0---0----|


    E5                            Emaj
e|--0---0---0---0---0---0---------0---0---0---0---0---0----|
B|--0---0---0---0---0---0---------0---0---0---0---0---0----|
G|--9---9---9---9---9---9---------8---8---8---8---8---8----|
D|---------------------------------------------------------|
A|--7---7---7---7---7---7---------6---6---6---6---6---6----|
E|--0---0---0---0---0---0---------0---0---0---0---0---0----|

VERSE: Use the same chord pattern (E-E2-E5-Emaj)for the VERSE, CHORUS and OUTRO

BRIDGE: 

C                          D
   When will you stop leav - ing ba-by?___
C                          D
   When will I stop de-sert - ing ba-by, yeah.
C                          D              E
   When will I start stay - ing with__ my-self?_______


LYRICS:
[ Tab from: http://www.guitartabs.cc/tabs/a/alanis_morissette/so_unsexy_tab_ver_2.html ]
VERSE 1
Oh these little rejections how they add up quickly
One small sideways look and I feel so ungood
Somewhere along the way I think I gave you the power to make
Me feel the way I thought only my father could

VERSE 2
Oh these little rejections how they seem so real to me
One forgotten birthday I'm all but cooked 
How these little abandonments seem to sting so easily
I'm thirteen again, am I thirteen for good?

CHORUS
I can feel so unsexy for someone so beautiful
So unloved for someone so fine
I can feel so boring for someone so interesting
So ignorant for someone of sound mind

VERSE 3
Oh these little protections how they fail to serve me
One forgotten phone call and I'm deflated
Oh these little defenses how they fail to comfort me
Your hand pulling away and I'm devastated

CHORUS
I can feel so unsexy for someone so beautiful 
So unloved for someone so fine 
I can feel so boring for someone so interesting 
So ignorant for someone of sound mind

BRIDGE
When will you stop leaving baby?
When will I stop deserving baby?
When will I start staying with myself?

VERSE 4
Oh these little projections, how they keep springing from me
I jump my ship as I take it personally 
Oh these little rejections how they disappear quickly
The moment I decide not to abandon me

CHORUS
I can feel so unsexy for someone so beautiful 
So unlov-ed for someone so fine 
I can feel so boring for someone so interesting 
So ignorant for someone of sound mind
Comments