Alanis Morissette - Ironic Chords & Tabs

 

Ironic Chords & Tabs

Alanis Morissette Chords & Tabs

Version: 2 Type: Tab

Ironic Tab

Intro
E|--7---7---7----7---7-7---9𨖹---|-9-9-9---7𧯟----77-7| 
B|--O---O---O----O---O-O---O桹桹---|-O-O-O---O桹桹----O桹-O| 
G|--8---8---8----8---8-8---9𨖹---|-9-9-9---9𨖹----99-9| 
D|--9---9---9----9---9-9---9𨖹---|-9-9-9---9𨖹----99-9| 
A|---------------------------------|-----------------------| 
E|---------------------------------|-----------------------|     
Intro 2
E|--76---------------| 
B|----------7---------|   
G|--------------------|
D|--------------9~~~--|  
A|--------------------| 
E|--------------------| 
Verse |-X5-|
E|-----------------|
B|-----------------|
G|-----------------|
D|4---9---4----5---|
A|4---9---4----5---|
E|4---9---4----5---|
Chorus |-X3-|
E|-----------------|--------------|
B|-----------------|--------------|
G|-----------------|--------------|
D|4---9---4----5---|7----5----4---|
A|4---9---4----5---|7----5----4---|
E|4---9---4----5---|7----5----4---|
Play Verse or
E|--------------------------|--------------------------|
B|--2^4----2---2---4--------|--2^4-----2--2~~~~~~~~~~--|
G|-----------4--------1~~~--|-----------4--------------|
D|--------------------------|--------------------------|
A|--------------------------|--------------------------|
E|--------------------------|--------------------------|

E|--2^4-----2--2~~~~~~~~~~--|-------9------7-----------|
B|-----------4--------------|--7/9----9\7----7~~~~~~~--|  
G|--------------------------|--------------------------| 
D|--------------------------|--------------------------| 
A|--------------------------|--------------------------|
E|--------------------------|--------------------------|

Chorus

Intro

Verse

Chorus

Play Intro to End


[ Tab from: http://www.guitartabs.cc/tabs/a/alanis_morissette/ironic_tab_ver_2.html ]