Alana Davis - 32 Flavors Chords & Tabs

 

32 Flavors Chords & Tabs

Alana Davis Chords & Tabs

Version: 1 Type: Tab 0 ratings
1 star 2 stars 3 stars 4 stars 5 stars
comments

32 Flavors Tab

32 Flavors - Alana Davis (originally done by Ani Di Franco)

Submitted by : deeZed
E-mail me at : deez@hotmail.com


e |--------------------------------3-----0-------0--------|
B |--1---3---0---3---0---3-----3-----3---1---3-------3-0--|
G |--0-------0--------------0--0---------0----------------|
D |--2-------0-----------------0---------2----------------|
A |----------2-----------------2--------------------------|
E |-------------------------------------------------------|  (Main Riff)

e |---------0--------|
B |--3--------3------|
G |--0---0--------0--|
D |------------------|
A |--3------3--------|
E |------------------|  (Riff 1)

e |----------0------------------0------------|
B |--3-----3-----3-------3--3-------3----3---|
G |--0---0---------0-----0----0-------0--0---|
D |------------------------------------------|
A |--2-----------------2-3---------------3---|
E |------------------------------------------|   (Riff 2)


Note : 
       Got the Main Riff off of someone, just made one simple change
       Play The Main Riff throughout the whole song, unless said otherwise
       Capoe on 2nd fret, slide it up to the 3rd fret if you wanna play it
           Ani Di Franco


Lyrics :

Squint your eyes and look closer 
I'm not between you and your ambition 
I am a poster girl with no poster, I am 32 flavors and then some 

(Mmmmm)
[ Tab from: http://www.guitartabs.cc/tabs/a/alana_davis/32_flavors_tab.html ]
Squint your eyes and look closer 
I'm not between you and your ambition 
I am a poster girl with no poster, I am 32 flavors and then some
And I'm beyond your peripheral vision so you might want to turn your head 
'Cause someday you're going to get hungry and eat all of the words that you just said 
I am what I am, 

* Riff 1 goes here then go back to Main Riff 

I am 32 flavors and then some 
God help you if you are an ugly 
'Course too pretty is also your doom 
'Cause everyone harbors a secret hatred for the prettiest girl in the room 
God help you if you are a phoenix and you dare to rise up from ash 
A thousand eyes will smolder with jealousy while you are just flying past 
I am what I am, I am 32 flavors and then some 
I'm taking my chances as they come 
I am 32 flavors and then some, I'm nobody but

* Riff 2 goes here, again followed by the Main Riff

I am someone, someone... 
I'd never try to give my life meaning by demeaning you 
And I would like to state for the record... 
I did everything that I could do 
I am beyond your peripheral vision so you might want to turn your head 
'Cause someday you're going to be starving and eating al the words that you just said 
That you said 

I am what I am, I am what I am 
I am 32 flavors and then some 
I'm taking my chances as they come 
I am 32 flavors and then some 
I'm looking for truth and there is none 
32 flavors and then some 
I'll never forget where I came from 
32 flavors and then some 
I'm nobody but I am someone 
32 flavors and then some 
I'm taking my chances as they come 
32 flavors and then some 
Looking for truth and there is none
Comments