Alan Parsons Project - Genesis Ch 1 V 32 Chords & Tabs

 

Genesis Ch 1 V 32 Chords & Tabs

Alan Parsons Project Chords & Tabs

Version: 1 Type: Tab 0 ratings
1 star 2 stars 3 stars 4 stars 5 stars
comments

Genesis Ch 1 V 32 Tab

Alan Parsons Project
Genesis CH. 1 V. 32

I haven't tried the parts together with another person or recording, but I've milled
it out in my head and they should match up pretty well. The melodies should be exactly
right.  Enjoy playing this wonderful Alan Parsons Project piece!

Guitar 1 (keyboard part)

|17-15-------------------|-17----------------------|
|------18-17-15-17-18-15-|----18-17-15----15-17----|
|------------------------|-------------17-------17-|
|------------------------|-------------------------|
|------------------------|-------------------------|
|------------------------|-------------------------|

|17-15-------------------|----------15----18-17-15-|
|------18-17-15-17-18-15-|----17-14----17----------|
|------------------------|-14----------------------|
|------------------------|-------------------------|
|------------------------|-------------------------|
|------------------------|-------------------------|Repeat from beginning

Guitar 2 (electric with effect; begin after Guitar 1's second time through)
Notation: ~ = let ring
[ Tab from: http://www.guitartabs.cc/tabs/a/alan_parsons_project/genesis_ch_1_v_32_tab.html ]
-------------------------------------------------|
-------------------------------------------------|
----------------------12-14----------------------|
---12-14-15~~15-14-12-------12-12-14-15-14-15p14-|
12-----------------------------------------------|
-------------------------------------------------|

------------------------------------------------|
------------------------------------------------|
-------------15-14~~----------------------------|
-12-14-12-11------------------------------------|
------------------------------------------------|
------------------------------------------------|

-----------------------------------------------|
--------------------12-14----------------------|
-------15~~15-14-12-------12-12-14-15-14-15p14-|
-----------------------------------------------|
----12-----------------------------------------|
-----------------------------------------------|

------------------------------------------------|
------------------------------------------------|
-------------15-14------------------------------|
-12-14-12-11------------------------------------|
------------------------------------------------|
------------------------------------------------|
Comments