Alan Merrill - I Love Rock And Roll Chords & Tabs

 

I Love Rock And Roll Chords & Tabs

Alan Merrill Chords & Tabs

Version: 1 Type: Tab 0 ratings
1 star 2 stars 3 stars 4 stars 5 stars
comments

I Love Rock And Roll Tab

   
Song: I Love Rock And Roll
Artist: Alan Merrill
Tabbed By: Pillie (pillie2001@hotmail.com)


KEY
| = barline
X = fully muted note
b = bend
\\\ /// = slide
p = pull off
h = hammer on
r = release bend

E |---------------|
B |---------------|
G |---------------|
D |---------------| * 1
A |---------------|
E |---------------|


1ST GUITAR
E |---------------|--------------|---------------|---------------|---------------|
B |---------------|--------------|---------------|---------------|---------------|
G |---------------|-2-2--4-4-X---|---------------|-2-2----4-2----|---------------|
D |-2-2---2-2-----|-2-2--4-4-X---|-2-2---2-2-----|-2-2----2-2-2--|---------------|
A |-2-2---2-2-----|-0-0--2-2-X---|-2-2---2-2-----|-0-0----2-0-2--|---------------|
E |-0-0---0-0-X-3-|------------3-|-0-0---0-0-X-3-|------------0--|---------------|

2ND GUITAR
E |---------------|--------------|---------------|---------------|---------------|
B |---------------|--------------|---------------|---------------|---------12----|
G |---------------|-2-2--4-4-X---|---------------|-2-2----4-2----|---------14b16-|
D |-2-2---2-2-----|-2-2--4-4-X---|-2-2---2-2-----|-2-2----2-2-2--|---------------|
A |-2-2---2-2-----|-0-0--2-2-X---|-2-2---2-2-----|-0-0----2-0-2--|---------------|
E |-0-0---0-0-X-3-|------------3-|-0-0---0-0-X-3-|------------0--|---------------|



BOTH GUITARS
E |---------------|--------------|
B |---------------|--------------|
G |---------------|--------------|
D |-2-2--2-0------|-2-2----------| * 2
A |-2-2-----2-0---|-2-2----------|
E |-0-0---------3-|-0-0----------|

E |---------------|--------------|---------------|---------------|
B |---------------|--------------|---------------|---------------|
G |-4-4-----------|-2-2-----4-4--|---------------|-2-------------|
D |-4-4--2-0------|-2-2-----4-4--|-2-2-----------|-2-------------|
A |-2-2-----2-0---|-0-0-----2-2--|-2-2-----------|-0-------------|
E |-------------3-|--------------|-0-0---X---3---|---------------|


E |---------------|
B |---------------|
G |---------------| * 3
D |---------------|
A |---------------|
E |---------------|

E |-----------------|
B |-----------------|
G |-4-4-4-4-4-4-4-4-|
D |-4-4-4-4-4-4-4-4-|
A |-2-2-2-2-2-2-2-2-|
E |-----------------|


1ST GUITAR
E |---------------|--------------|---------------|---------------|---------7\\\--|
B |---------------|--------------|---------------|---------------|---------------|
G |---------------|-2-2--4-4-X---|---------------|-2-2----4-2----|---------------|
D |-2-2---2-2-----|-2-2--4-4-X---|-2-2---2-2-----|-2-2----2-2-2--|---------------|
A |-2-2---2-2-----|-0-0--2-2-X---|-2-2---2-2-----|-0-0----2-0-2--|---------------|
E |-0-0---0-0-X-3-|------------3-|-0-0---0-0-X-3-|------------0--|---------------|

2ND GUITAR
E |---------------|--------------|---------------|---------------|---------19\\\-|
B |---------------|--------------|---------------|---------------|---------------|
G |---------------|-2-2--4-4-X---|---------------|-2-2----4-2----|---------------|
D |-2-2---2-2-----|-2-2--4-4-X---|-2-2---2-2-----|-2-2----2-2-2--|---------------|
A |-2-2---2-2-----|-0-0--2-2-X---|-2-2---2-2-----|-0-0----2-0-2--|---------------|
E |-0-0---0-0-X-3-|------------3-|-0-0---0-0-X-3-|------------0--|---------------|



1ST GUITAR
E |-------------------|--------------|
B |-------------------|--------------|
G |-------------------|--------------|
D |-2-2--2--0---------|-2-2----------| * 2
A |-2-2-------2--0----|-2-2----------|
E |-0-0-------------3-|-0-0----------|

2ND GUITAR
E |-----12-10---------|--------------|
B |----------12-10----|--------------|
G |----------------12-|--------------|
D |-------------------|--------------| * 2
A |-------------------|--------------|
E |-------------------|--------------|



1ST GUITAR
E |-------------------|--------------|---------------|---------------|
B |-------------------|--------------|---------------|---------------|
G |-4-4---------------|-2-2-----4-4--|---------------|-2-------------|
D |-4-4--2--0---------|-2-2-----4-4--|-2-2-----------|-2-------------|
A |-2-2-------2--0----|-0-0-----2-2--|-2-2-----------|-0-------------|
E |-----------------3-|--------------|-0-0---X---3---|---------------|

2ND GUITAR
E |-----12-10---------|--------------|---------------|---------------|
B |----------12-10----|--------------|---------------|---------------|
G |----------------12-|---------4-4--|---------------|-2-------------|
D |-------------------|---------4-4--|-2-2-----------|-2-------------|
A |-------------------|---------2-2--|-2-2-----------|-0-------------|
E |-------------------|--------------|-0-0---X---3---|---------------|

E |---------------|
B |---------------|
G |---------------|
D |---------------| * 3
A |---------------|
E |---------------|
[ Tab from: http://www.guitartabs.cc/tabs/a/alan_merrill/i_love_rock_and_roll_tab.html ]
BOTH GUITARS
E |-----------------|
B |-----------------|
G |-4-4-4-4-4-4-4-4-|
D |-4-4-4-4-4-4-4-4-|
A |-2-2-2-2-2-2-2-2-|
E |-----------------|


1ST GUITAR
E |---------------|--------------|---------------|---------------|---------------|
B |---------------|--------------|---------------|---------------|---------------|
G |---------------|-2-2--4-4-X---|---------------|-2-2----4-2----|---------------|
D |-2-2---2-2-----|-2-2--4-4-X---|-2-2---2-2-----|-2-2----2-2-2--|---------------|
A |-2-2---2-2-----|-0-0--2-2-X---|-2-2---2-2-----|-0-0----2-0-2--|---------------|
E |-0-0---0-0-X-3-|------------3-|-0-0---0-0-X-3-|------------0--|---------------|

2ND GUITAR
E |---------------|--------------|---------------|---------------|----------7\\\-|
B |---------------|--------------|---------------|---------------|----------5\\\-|
G |---------------|-2-2--4-4-X---|---------------|-2-2----4-2----|---------------|
D |-2-2---2-2-----|-2-2--4-4-X---|-2-2---2-2-----|-2-2----2-2-2--|---------------|
A |-2-2---2-2-----|-0-0--2-2-X---|-2-2---2-2-----|-0-0----2-0-2--|---------------|
E |-0-0---0-0-X-3-|------------3-|-0-0---0-0-X-3-|------------0--|---------------|



1ST GUITAR
E |-------------------|---------------|-------------------|-------------------------|
B |-------------------|---------------|-------------------|-------------------------|
G |-------------------|---------------|-------------------|-------------------------|
D |-2-2--2--0---------|-2-2-----------|-2-2--2--0---------|-2-2---------------------|
A |-2-2-------2--0----|-2-2-----------|-2-2-------2--0----|-2-2---------------------|
E |-0-0-------------3-|-0-0-----------|-0-0-------------3-|-0-0---------------------|

2ND GUITAR
E |-----12-10---------|---------------|-------------------|-----12----12----------|
B |----------12-10----|---------------|-------------------|-----------------------|
G |----------------12-|---------------|-7/6\7-------------|-11b12-11b12-11b12p9---|
D |-------------------|---------------|-7/6\7-------12-14-|--------------------11-|
A |-------------------|---------------|---------12h14-----|-----------------------|
E |-------------------|-----0-3-3brp0-|-------------------|-----------------------|


1ST GUITAR
E |--------------------|-------------------|---------------|---------------|
B |--------------------|-------------------|---------------|---------------|
G |-4-4----------------|-2-2------------4-4|---------------|-2-------------|
D |-4-4--2--0----------|-2-2------------4-4|-2-2-----------|-2-------------|
A |-2-2-------2--0-----|-0-0------------2-2|-2-2-----------|-0-------------|
E |-----------------3--|-------------------|-0-0---X---3---|---------------|

2ND GUITAR
E |--------------------|-------------------|4-5-5-4b5r4----|---------------|
B |------------------10|12-10p9h10p9-10-12-|-----------5---|-7-------------|
G |10b11-------9-9h11--|-------------------|-------------6-|---------------|
D |------999-11-11-----|-------------------|---------------|---------------|
A |--------------------|-------------------|---------------|---------------|
E |--------------------|-------------------|---------------|---------------|


E |---------------|
B |---------------|
G |---------------| * 8
D |---------------|
A |---------------|
E |---------------|

1ST GUITAR
E |---------------|--------------|---------------|---------------|
B |---------------|--------------|---------------|---------------|
G |---------------|-2-2--4-4-X---|---------------|-2-2--------4-2| 
D |-2-2---2-2-----|-2-2--4-4-X---|-2-2---2-2-----|-2-2--------2-2|
A |-2-2---2-2-----|-0-0--2-2-X---|-2-2---2-2-----|-0-0--------2-0|
E |-0-0---0-0-X-3-|------------3-|-0-0---0-0-X-3-|---------------|

2ND GUITAR
E |---------------|--------------|---------------|---------------|
B |---------------|--------------|---------------|---------------|
G |---------------|--------------|---------------|---------------|
D |---------------|--------------|---------------|---------------|
A |---------------|--------------|---------------|---------------|
E |---------------|--------------|---------------|---------------|


1ST GUITAR
E |---------------|---------------|---------------|---------------|
B |---------------|---------------|---------------|---------------|
G |---------------|-2-2--4-4-X----|---------------|-2-2--------4-2| 
D |-2-2---2-2-----|-2-2--4-4-X----|-2-2---2-2-----|-2-2--------2-2| * 2
A |-2-2---2-2-----|-0-0--2-2-X----|-2-2---2-2-----|-0-0--------2-0|
E |-0-0---0-0-X-3-|------------3--|-0-0---0-0-X-3-|---------------|

2ND GUITAR
E |0-0-0-0-0-0-0-0|0-0-0-0-0-0-0-0|0-0-0-0-0-0-0-0|0-0-0-0-0-0-0-0|
B |---------------|---------------|---------------|---------------|
G |---------------|---------------|---------------|---------------| * 2
D |---------------|---------------|---------------|---------------|
A |---------------|---------------|---------------|---------------|
E |---------------|---------------|---------------|---------------|
Comments