Alan Jackson - Remember When Chords & Tabs

 

Remember When Chords & Tabs

Alan Jackson Chords & Tabs

Version: 4 Type: Tab

Remember When Tab

This Sounds Perfect!!! ( If you play it right )


/ = Slide

[ Tab from: http://www.guitartabs.cc/tabs/a/alan_jackson/remember_when_tab_ver_4.html ]
e:----------3---3---------0-2-3----3-2-0-----3-2-3---3---------0-2-3---3-2-0-|
B:--5/8--7--0---0---------0--------------3-------0---0---------0-------------|
G:------------0---------0-------0----------2-------0---------0-------0-------|
D:---------------------------------------0-----------------------------------|
A:----------------------------3------------------------------------3---------|
E:----------3-----3-2-0--------------------------3-----3-2-0-----------------|

----------------------------------------------------------------------------

e:-------0/2-----3-2-|
B:-3---3-----3-------|
G:---2---------------|
D:-0-----------------|
A:-------------------|
E:-------------------|