Alan Jackson - Remember When Chords & Tabs

 

Remember When Chords & Tabs

Alan Jackson Chords & Tabs

Version: 2 Type: Tab 0 ratings
1 star 2 stars 3 stars 4 stars 5 stars
comments

Remember When Tab

   
-------------------------------------------------------------------------------
			     Remember When(Intro) - Alan Jackson
-------------------------------------------------------------------------------
Tabbed by: Jason Boreo
Email:kawrider240@hotmail.com
This is the correct and full intro for the lead guitar.
Tuning:Standard

e|------11/12-----15-14-15----------0----12---14-----------------------------|
B|---------------------------12----------------------------------------------|
G|-------------------------------12------------------------------------------|
D|---------------------------------------------------------------------------|
A|---------------------------------------------------------------------------|
E|---------------------------------------------------------------------------|
[ Tab from: http://www.guitartabs.cc/tabs/a/alan_jackson/remember_when_tab_ver_2.html ]
e|-----14/15---15-15-14-12--------15-14-15-----------------------------------|
B|-------------------------15-15---------------------------------------------|
G|---------------------------------------------------------------------------|
D|---------------------------------------------------------------------------|
A|---------------------------------------------------------------------------|
E|---------------------------------------------------------------------------|

e|--------------------15-15-14h15-15-14-12-----------------------------------|
B|-----12----------------------------------15-12-13---12h13p12---------------|
G|--------12------------------------------------------------------12---------|
D|-----------12-14-----------------------------------------------------------|
A|---------------------------------------------------------------------------|
E|---------------------------------------------------------------------------|

| /  slide up
| \  slide down
| h  hammer-on
| p  pull-off
| ~  vibrato
| +  harmonic
| x  Mute note
===============================================================================
Comments