Alan Jackson - Remember When Chords & Tabs

 

Remember When Chords & Tabs

Alan Jackson Chords & Tabs

Version: 1 Type: Tab 0 ratings
1 star 2 stars 3 stars 4 stars 5 stars
comments

Remember When Tab

Tabbed by Jordan Boesch
I dont play guitar, but it sounds right.


[ Tab from: http://www.guitartabs.cc/tabs/a/alan_jackson/remember_when_tab.html ]
15--14--15------------------15--15--14--14/15----15--14--12--10--10---
----------------------------------------------10----------------------
-----------------12------9--------------------------------------------
---------------------12-----------------------------------------------
----------------------------------------------------------------------
----------------------------------------------------------------------

15--14--15------------------15--15--14--14/15----15--14--12--10--10--8
-------------12-------------------------------10----------------------
-----------------12------9--------------------------------------------
---------------------12-----------------------------------------------
----------------------------------------------------------------------
----------------------------------------------------------------------
Comments