Alacranes Musical - Sin Tu Amor Chords & Tabs

 

Alacranes Musical Chords & Tabs

Version: 2 Type: Chords 0 ratings
1 star 2 stars 3 stars 4 stars 5 stars
comments

Sin Tu Amor Chords

   
FAVOR DE LEER INSTRUCCIONES


Les tengo una manera mas facil de tocar esta piesa. Esta cancion
es mu sencilla y la version actual necesita unas ser corregida

primero que todo, usaremos la sejilla (o el "capo") en el segundo
traste para reducir el uso de acordes con barra. la original
coincide con este tono, pero puedes mover la sejilla hacia arriba
o abajo conforme tu voz o tu oido(preferencia).

Los acordes especificados tiene formato similar a los de acordes
"abiertos"
 por ejemplo. el acorde de "D" (en este caso)
se toca como una "C"

E|-2 y en estroctura abierta. F#|-0 recueda. la sejilla
B|-3                          C#|-1 esta en el segundo traste
G|-2 <-(Acorde D mayor)->     A |-0 haci que las cuerdas abiertas
D|-4                          E |-2 caen en el sugundo traste
A|-5                          B |-3
E|-x                          F#|-x

Tomen en cuenta que el acorde ha sido aumentado
por dos trastes (la sejilla)

Les dare los acordes en forma abierta
para que no exista confusion/pretexto

(recuerda los Zeros re-emplasan al segundo traste)

-CON SEJILLA-
Estos son los acordes usados

       (D/C#)
  (D)(Dmaj7/C#)(Bm)(A)(G) (A7)(F#m)
F#|-0---0--------0---3--1--3---0
C#|-1---1--------1---0--1--3---0
A |-0---0--------2---0--2--4---0
E |-2---2--------2---0--3--3---2
B |-3---2--------0---2--3--5---2
F#|-x---x--------x---3--1--3---0


INTRO:
  D        D/C#       Bm          A       G       A
 |---------------------0-----------------------1-------------------|
 |-1-- 0h1---1---0h1---1------------0--------1--1---0-1/3-1-0-1-0--|
 |-0--0---0--0--0---0--2---0h1-----0-2-0-----------0-------------2-|
 |-2-2-----2-2-2-----2-2--2---2---0--------3------0----------------|
 |-3---------2---------0-0-----0----------3-3-3--------------------|
 |-------------------------------3-------1-------3-----------------|

[ Tab from: http://www.guitartabs.cc/tabs/a/alacranes_musical/sin_tu_amor_crd_ver_2.html ]
D            D/C#          Bm
Si quieres volver te esperare
     A                 G
por favor no te vallas de mi
       A
de mi vida amor
D        D/C#            Bm
yo se que no tiene que haber
    A           G
escusas por este dolor
           A                D
que te deje en el corazon
        D/C#              Bm
pero si quieres estoy dispuesto
      A            G
para que regreses hoy
            A
para que regreses hoy


G          A7
Y es que no puedo mas
D         F#m       Bm
estar solo sin tu amor
G             A7         G
nadie me comprende como tu
              A7
y es que no puedo mas
D          F#m       Bm
estar solo sin tu amor
 G           A7        (INTERMEDIO)
nadie me comprende como tu

INTERMEDIO:
  D        D/C#       Bm          A       G       A
 |---------------------------------------------1-------------------|
 |-1-- 0h1---1---0h1---1------------0--------1--1---0-1/3-1-0-1-0--|
 |-0--0---0--0--0---0--2---0h1-----0-2-0-----------0-------------2-|
 |-2-2-----2-2-2-----2-2--2---2---0--------3------0----------------|
 |-3---------2---------0-0-----0----------3-3-3--------------------|
 |-------------------------------3-------1-------3-----------------|



D              D/C#             Bm
Hace un tiempo atras que yo espere
        A          G
una respuesta a tu amor
         A
pero no resulto
D         D/C#             Bm
pero si quieres estoy dispuesto
      A            G
para que regreses hoy
           A
para que regreses hoy


G          A7
Y es que no puedo mas
  D        F#m     Bm
estar solo sin tu amor
G             A7         G
nadie me comprende como tu
              A7
y es que no puedo mas
D          F#m       Bm
estar solo sin tu amor
 G           A7         (FIN)
nadie me comprende como tu

 Fin:

  D        D/C#       Bm          A       G       A
 |---------------------0-----------------------1-------------------|
 |-1-- 0h1---1---0h1---1------------0--------1--1---0-1/3-1-0-1-0--|
 |-0--0---0--0--0---0--2---0h1-----0-2-0-----------0-------------2-|
 |-2-2-----2-2-2-----2-2--2---2---0--------3------0----------------|
 |-3---------2---------0-0-----0----------3-3-3--------------------|
 |-------------------------------3-------1-------3-----------------|



Espero que puedan comprender esta version un poco mejor que las demas


thelopez.solution@gmail.com <---- preguntas/ ayuda
Sin verguenza por favor


--LAUREN's AddicTion
Comments