Alabama Thunderpussy - Negligence Chords & Tabs

 

Negligence Chords & Tabs

Alabama Thunderpussy Chords & Tabs

Version: 1 Type: Tab 0 ratings
1 star 2 stars 3 stars 4 stars 5 stars
comments

Negligence Tab

Artist: Alabama Thunderpussy
Song: Negligence
Album: Constellation
Tabbed by: Mistahfranco

This is just one of their 2 soft songs on their album.  Fairly easy.  Acostic Guitar in 
standard tuning.


------------------------------------------               
------------------------------------------    repeat
-9------9-----9/7-7----9/-7--9p7----------    twice
-9-7h9-7---9---------9----7------9-7-9-7-7
-7---------9---------9----5----------7---7 
-----------7---------7---------------7---7

[ Tab from: http://www.guitartabs.cc/tabs/a/alabama_thunderpussy/negligence_tab.html ]
-0-----------------------------------------------------
-0-----------------------------------------------------
-9----9-9-9-7-9-7-9-9-9/12-12-12-9---------9--9/12-12-9 
-9-7-9-----------------------------12-12-12-12---------
-7-----------------------------------------------------
-0-----------------------------------------------------

--------------------------
-------------------------- repeat 
---------9---------------- twice
-12-12-12-12-12/9-9-9-7-7-
-------------------------7
--------------------------

second time 
-------------------------------------------
-------------------------------------------
-9/12-12-9/12-12-12-12-14-12-14/17-17-17-16
-------------------------------------------
-------------------------------------------
-------------------------------------------
The intro is all i could get right now.  I'll try to do the chords for the chorus when 
i feel like it.  That's about it.  If you could help out with the chords, i would 
appreciate it.  Mistahfranco
Comments