Alabama3 - Woke Up This Morning Chords & Tabs

 

Woke Up This Morning Chords & Tabs

Alabama3 Chords & Tabs

Version: 1 Type: Tab 0 ratings
1 star 2 stars 3 stars 4 stars 5 stars
comments

Woke Up This Morning Tab

Alabama3
Last Train to Mashville Volume 2
Woke up this Morning

Capo 3rd

Repeatedly Strum the E-string with your thumb throughout the song
e--------p---------------------------------p------------
B--/5---3-0--------------------------/5---3-0-------/5--
G--/4-------2-0----------------------/4-------2-0-------
D---------------2-----2-0-2-0-2-0-----------------2-----
A-------------------------------------------------------
E-------------------------------------------------------

Then Sing over this pattern
[ Tab from: http://www.guitartabs.cc/tabs/a/alabama3/woke_up_this_morning_tab.html ]
e------------------------------------------------------
B-----------------------------------------------/5-----
G---b-------b-----------------b-----b------------------
D--4-5--2--4-5--2-0-2-0-2-0--4-5-2-4-5--2-0-2-0--------
A------------------------------------------------------
E------------------------------------------------------


Them the Chorus is over 

e------------------------------------------------------
B---3-----5--------------------------------------------
G---4-----6--------------------------------------------
D------------------------------------------------------
A------------------------------------------------------
E------------------------------------------------------

And then back to the first pattern.



Comments