Alabama3 - Let The Caged Bird Sing Chords & Tabs

 

Let The Caged Bird Sing Chords & Tabs

Alabama3 Chords & Tabs

Version: 1 Type: Tab 0 ratings
1 star 2 stars 3 stars 4 stars 5 stars
comments

Let The Caged Bird Sing Tab

Alabama3
Last train To Mashiville Volume 2
Let the Caged Bird Sing


Capo 5 th  Strum the E-String throughout
[ Tab from: http://www.guitartabs.cc/tabs/a/alabama3/let_the_caged_bird_sing_tab.html ]
e----------------------------------------------
B----------------------------------------------
G---h----b---h------h-----b--h-----------------
D--0-2-2-5---0-2----0-2-2-5-0-2----------------
A----------------------------------------------
E----------------------------------------------



e---h----3--h-h-----h----3--h-h—-3----------
B--3-5-5----0-3-5---3-5-5-3-0-3-5-3-3-------
G-------------------------------------4-------
D----------------------------------------------
A----------------------------------------------
E----------------------------------------------

Comments