Alabama - Old Flame Chords & Tabs

 

Old Flame Chords & Tabs

Alabama Chords & Tabs

Version: 1 Type: Bass Tab 0 ratings
1 star 2 stars 3 stars 4 stars 5 stars
comments

Old Flame Bass Tab

 one time intro)  Start
G---------------  ----------------------------------------------------------|
D----5--------2-  -3-----------3-----3---3----------------------------------|
A-1-----3-3-5----  ---0--1--1-----3----3---3--0--0--5--5--------3--1--0--0--|
E----------------  ---------------------------------------3--3--------------|
                                                  (chorus)
------------------------------------------------- --------------------------|
------------------------------3------------------ ------------3-----3---3-2-|
-1--1--3--4--5--5-------1--3----3--3----------0-- -1--1--1--3---3-3---3-----|
-------------------3--3---------------1--1--3---- --------------------------|
                                                                 1.
---------------------------------------------------------------- ----------|
------------------------2-3--------3--------------------3-3----- -3-----2--|
-5--5---5---------3-3-5-----0-1-1----0--1--3-4-5-3--1-3-----3-3- ---3-5----|
------3----3--3-3----------------------------------------------- ----------|
            to start         2. (to chorus and fade)
------------------------      -----------------|
-3---3--1------------2--      -----------------|
---3-------1---1-3-5----      ----------0------|
-----------------------       --1--1--3--------|
[ Tab from: http://www.guitartabs.cc/tabs/a/alabama/old_flame_btab.html ]
Comments