Alabama - Mountain Music Solo Chords & Tabs

 

Mountain Music Solo Chords & Tabs

Alabama Chords & Tabs

Version: 1 Type: Tab 0 ratings
1 star 2 stars 3 stars 4 stars 5 stars
comments

Mountain Music Solo Tab

Alabama - Mountain Music (lead)

***********************************************************************

/   =   slide up                                h   =   hammer-on

\   =   slide down                              b   =   bend

bh  =   bend & hold                             r   =   release bend

p   =   pulloff                                 

***********************************************************************


INTRO

E---------------------------------------------------------------------
B---------------------------------------------------------------------
G--2-2-2----2-----2-2-----2-2-----------2-2-2-2-2-----2-2---2-2----2--
D--2-2-2-2-2--2/4-2-2-2h4-2-2-2h4-2-4\--2-2-2--2--2/4-2-2-4-2-2-2h4---
A--0------------------------------------0--0--------------------------
E---------------------------------------------------------------------


E-------------------------------------|
B--------------5b-5-----5-5-----------|
G-----2--4b-2--------4bh---4r-2h4p2---|
D--2h4--------------------------------|
A-------------------------------------|
E-------------------------------------|



LEAD SOLO

[ Tab from: http://www.guitartabs.cc/tabs/a/alabama/mountain_music_solo_tab.html ]
E----------------------------------------------------------------------
B------------------------------------10bh-10r-10------10h12p10-12b-12b-
G--------------------4-4/6-9-11p9-9---------------9h11-----------------
D-------------2-2-4/6--------------------------------------------------
A--------2-2h4-4-------------------------------------------------------
E--0--2h4-4------------------------------------------------------------


E--12----12-------------------------------------------------------
B----12bh--12r-10h12p10-10-----10-10h12p10-10--12bh-12r-10h12-10--
G--------------------------9/11-----------------------------------
D-----------------------------------------------------------------
A-----------------------------------------------------------------
E-----------------------------------------------------------------


E-----------------------------------------------------------------|
B--12bh-12r-10h12p10-----10-10---10-------5-5---------2-----------|
G---------------------9bh--9--9bh--9r--4bh-4-4r-2----0------------|
D-------------------------------------------------4h5--5\4-2------|
A------------------------------------------------------------0----|
E-------------------------------------------------------------2---|
Comments