Al Stewart - Year Of The Cat Chords & Tabs

 

Year Of The Cat Chords & Tabs

Al Stewart Chords & Tabs

Version: 1 Type: Tab 0 ratings
1 star 2 stars 3 stars 4 stars 5 stars
comments

Year Of The Cat Tab

   
Title: Year of the Cat
Artist: Al Stewart 
Album: Year of the Cat

Tabbed by: Mikhail Punjani (mikkyd@hotmail.com)

Tuning: Standard (E A D G B E)

Well i couldnt find the solo for year of the cat on the internet, so i decided to tab it
out myself. Its a 100% correct, so dont bother sending me correction, unless it has to do
with certain symbols which i could have added. Anyway here it is, have fun...

Guitar solo 1: Acoustic


E|--------5--7--7h8--7--5-----5h7------|-------5-----------------------||
B|--7--8-------------------8-------5---|-7--8-----8p7--8--7p5-----5----||
G|-------------------------------------|-----------------------7-----4-||
D|-------------------------------------|-------------------------------||
A|-------------------------------------|-------------------------------||
E|-------------------------------------|-------------------------------||


E|--7p5-7--5--------|-------------5------------------------------------||
B|------------8p7-8-|--7-5-5-7--8-------5\3----------------------------||
G|------------------|------------------------2-0-2-4-------------------||
D|------------------|---------------------------------2--4--5----------||
A|------------------|--------------------------------------------------||
E|------------------|--------------------------------------------------||
[ Tab from: http://www.guitartabs.cc/tabs/a/al_stewart/year_of_the_cat_tab.html ]
                Rake
E|------------|--7----10\12--10----------------------------------------||
B|-------8--5-|--7--------------12-10---10-12-10-----------------------||
G|-4--7-------|--7-------------------------------12--12----------------||
D|------------|--------------------------------------------------------||
A|------------|--------------------------------------------------------||
E|------------|--------------------------------------------------------||


E|-4--4--5--7--8------------------||
B|----------------5--5--7h8p7-----||
G|--------------------------------||
D|--------------------------------||
A|--------------------------------||
E|--------------------------------||


Solo 2: Electric guitar


E|--17-17-17--17-17-17--15-14-17-|-----------------|------10-12-14-----||
B|-------------------------------|--8-7-8-7-10-8-7-|--10-----------12--||
G|-------------------------------|-----------------|-------------------||
D|-------------------------------|-----------------|-------------------||
A|-------------------------------|-----------------|-------------------||
E|-------------------------------|-----------------|-------------------||

E|-------------------------------19---17-17-15--17\19--19-17-----------||
B|--14-15---15-14-12---16-17-19----------------------------------------||
G|---------------------------------------------------------------------||
D|---------------------------------------------------------------------||
A|---------------------------------------------------------------------||
E|---------------------------------------------------------------------||


If you have any questions or comments, e-mail me at mikkyd@hotmail.com
Comments