Al Stewart - The Year Of The Cat Solo Chords & Tabs

 

The Year Of The Cat Solo Chords & Tabs

Al Stewart Chords & Tabs

Version: 1 Type: Tab 0 ratings
1 star 2 stars 3 stars 4 stars 5 stars
comments

The Year Of The Cat Solo Tab

Aqui está el solo de "The Year of the Cat", es exacto al original.
Disfrutenlo!



e---2-3-5-7-8-8-5-3-3h5-0------3-3-3-2-2h3p2-0-------
B----------------------------------------------3-3---
G----------------------------------------------------
D----------------------------------------------------
A----------------------------------------------------
E----------------------------------------------------

e---7-5-7-5-3-3/2---2-0-0-2-3-3/5-----0---------------0h3-0---
B-----------------------------------0---3-----------0---------
G-----------------------------------------3/2-----------------
D---------------------------------------------0-2-4-----------
A-------------------------------------------------------------
E-------------------------------------------------------------
[ Tab from: http://www.guitartabs.cc/tabs/a/al_stewart/the_year_of_the_cat_solo_tab.html ]
e---8-10-10--6-6-3-3h5-5----4-4-5-5/7----------------
B---9-----------------------4---------6-6-7-7/9-9----
G----------------------------------------------------
D----------------------------------------------------
A----------------------------------------------------
E----------------------------------------------------

e---17-17-17--17-17-17-15-14-15/17---15-14-15-14-5-3-2---
B--------------------------------------------------------
G--------------------------------------------------------
D--------------------------------------------------------
A--------------------------------------------------------
E--------------------------------------------------------

e---5-9-10-12-7---9-10---10-9-7-11-14-16-18/...------
B----------------------------------------------------
G----------------------------------------------------
D----------------------------------------------------
A----------------------------------------------------
E----------------------------------------------------

e---17-17-15-17/19-17/19-17--------------------------
B----------------------------------------------------
G----------------------------------------------------
D----------------------------------------------------
A----------------------------------------------------
E----------------------------------------------------

That´s the solo. Fernando Alayo LP
Comments