Al Stewart - A Small Fruit Song Chords & Tabs

 

A Small Fruit Song Chords & Tabs

Al Stewart Chords & Tabs

Version: 1 Type: Tab 0 ratings
1 star 2 stars 3 stars 4 stars 5 stars
comments

A Small Fruit Song Tab

This is only the tab for the first guitar, but it still sounds very nice.and the guitar
part changes once he startssinging so ive just said this is the intro and ive only done
the first three variations on the riff because the rest of this guitar part is similar
until the singing. Gorgeous song tho.

There is a constant descending bass line so i reccommend keeping your index middle and
ring fingers in the Am position and use your pinkmy and thumb for the bass line.

capo 2nd fret
[ Tab from: http://www.guitartabs.cc/tabs/a/al_stewart/a_small_fruit_song_tab.html ]
e|-------------------------------------------------0-|
B|-----0h1-----------0h1---------0h1p0-----------0-1-|
G|---------2-----2-------2------------2------2-------|
D|---2-------2-----2-------2---2-------2-------2-----|
A|-0-------------------------------------------------|
E|-------------3-------------2-------------1---------|

e|---------------------------------------------0-|
B|-----0h1p0---------1---------0h1p0---------0-1-|
G|----------2----2-----2------------2----2-------|
D|---2-------2-----2-----2---2-------2-----2-----|  2 times
A|-0---------------------------------------------|
E|-------------3-----------2-----------1---------|

e|-----------0-------------------------------------0-|
B|-------0h1-1-------0h1-----------0h1p0---------0-1-|
G|---2-----------2-------2-----2--------2----2-------|
D|-----2-----------2-------2-----2-------2-----2-----|
A|-0-------------------------------------------------|
E|-------------3-------------2-------------1---------|
Comments