Akira Yamaoka - Youre Not Here Chords & Tabs

 

Youre Not Here Chords & Tabs

Akira Yamaoka Chords & Tabs

Version: 2 Type: Tab 0 ratings
1 star 2 stars 3 stars 4 stars 5 stars
comments

Youre Not Here Tab

   
Akira Yamaoka - You're Not Here
Lyrics by Nora Stevens Heath

Tuning: eb Bb Gb Db Ab eb

Main Riff
eb|---------------------------------------------|
Bb|---------------------------------------------|
Gb|---------------------------------------------|
Db|-----0-------0-------0-------0---------------|
Ab|---7---7---7---7---7---7---7---7-------------|
Eb|-5-------5-------5-------5-------5-----------|

eb|---------------------------------------------|
Bb|---------------------------------------------|
Gb|---------------------------------------------|
Db|------0---------0---------0---------0--------|
Ab|---10---10---10---10---10---10---10---10-----|
Eb|-8---------8---------8---------8---------8---|

Lead bit 1 (repeat over main riff)
eb|---------------------------------|-12-----------------------------------|
Bb|---------------------------------|----12~-------------------------------|
Gb|----12~--------------------------|--------------------------------------|
Db|-12------------------------------|--------------------------------------| 
Ab|---------------------------------|--------------------------------------|
Eb|---------------------------------|--------------------------------------|

second lead bit (0:14)
eb|---------------------------------|--------------------------------------|
Bb|---------------------------------|--------------------------------------|
Gb|---------------------------------|--------------------------------------|
Db|---------------------------------|--------------------------------------| 
Ab|------------------------7--------|-10--------------12------7----10------|
Eb|--------------5----8-------------|--------------------------------------|

eb|---------------------------------|--------------------------------------|
Bb|---------------------------------|--------------------------------------|
Gb|---------------------------------|--------------------------------------|
Db|---------------------------------|--------------------------------------| 
Ab|------------------------7--------|-10-----------------------------------|
Eb|-5------------5----8-------------|-----------------5-------3------------|

For the verse, play the main riff above.
next lead bit 0:42 (with delay effects)
eb|-----------0------------------|--------------0-----------------------|
Bb|------1-----------------------|--------1-----------------------------|
Gb|-2----------------------------|-0------------------------------------|
Db|------------------------------|--------------------------------------|
Ab|------------------------------|--------------------------------------|

Eb|------------------------------|--------------------------------------|
eb|------------------------------|----12-----12-----12----12----12-----|
Bb|---13----15----13--13---------|-13-----13-----13----13----13----13--|
Gb|-14---------------------------|-------------------------------------|
Db|------------------------------|-------------------------------------|
Ab|------------------------------|-------------------------------------|
Eb|------------------------------|-------------------------------------|

pre-chorus bit
   GUITAR ONE
eb|-----------------|-----------------|-----------------|------------------|
Bb|-----------------|-----------------|-----------------|------------------|
Gb|-7---------------|-5---------------|-7---------------|-5----------------|
Db|-7---------------|-5---------------|-7---------------|-5----------------|
Ab|-5---------------|-3---------------|-5---------------|-3----------------|
Eb|-----------------|-----------------|-----------------|------------------|

eb|-----------------|-----------------|-----------------|------------------|
Bb|-----------------|-----------------|-----------------|------------------|
Gb|-----------------|------------9----|-----------------|-------------9----|
Db|-----------------|-10-----------10-|-----------------|-10------------10-|
Ab|-----------10-12-|-----------------|-----------10-12-|------------------|
Eb|---10-12-13------|-----------------|---10-12-13------|------------------|
   
eb|-----------------|-----------------|-----------------|------------------|
Bb|-----------------|-----------------|-----------------|------------------|
Gb|-7---------------|-5---------------|-4---------------|---------4.--4.---|
Db|-7---------------|-5---------------|-4---------------|---------4.--4.---|
Ab|-5---------------|-3---------------|-2---------------|---------2.--2.---|
Eb|-----------------|-----------------|-----------------|------------------|

eb|-----------------|-----------------|-----------------|------------------|
Bb|-----------------|-----------------|-----------------|------------------|
Gb|-----------------|------------9----|-----------------|------------------|
Db|-----------------|-10-----------10-|-9---------------|---------9.--9.---|
Ab|-----------10-12-|-----------------|-----------------|---------9.--9.---|
Eb|---10-12-13------|-----------------|-----------------|------------------|
   GUITAR TWO

[ Tab from: http://www.guitartabs.cc/tabs/a/akira_yamaoka/youre_not_here_tab_ver_2.html ]
Chorus thing (if you can call it that)
   GUITAR ONE
    Amin    G       F       G         Amin    G       F       Emin
eb|-----0-------3---------------3---|-----0-------3-------------------|
Bb|---1---1---0---0-----1-----0---0-|---1---1---0---0-----1-------0---|
Gb|-2-------0---------2-----0-------|-2-------0---------2-------0---0-|
Db|-----------------3-----3---------|-----------------3-----3-2-------|
Ab|---------------------------------|---------------------------------|
Eb|---------------------------------|---------------------------------|

eb|---------------------------------|---------------------------------|
Bb|---------------------------------|---------------------------------|
Gb|---------------------------------|---------------------------------|
Db|-7~------9~------10~---12~-------|-7~------------------------------|
Ab|---------------------------------|---------------------------------|
Eb|---------------------------------|---------------------------------|
   GUITAR TWO (weird delay and flange effects)

	  eb|-0-|
	  Bb|-0-|
	  Gb|-0-|
	  Db|-2-|
	  Ab|-2-|
	  eb|-0-|


at 1:43 go back to the main riff
SOLO: (2:02)
   (w/effects)
eb|----------------------------------|------------------------------|
Bb|-x-8--8--8--8---10----------------|-10--10----8-8-8--8-----------|
Gb|-x-7--7--7--7---9-----------------|-9---9-----7-7-7--7-----------|
Db|----------------------------------|------------------------------|
Ab|----------------------------------|------------------------------|
Eb|----------------------------------|------------------------------|

eb|-------------------------------|---------------------------------|
Bb|-8--8--10-10-10--10------------|-10--10----8--8--8-8--8----------|
Gb|-7--7--9--9--9---9-------------|-9---9-----7--7--7-7--7--/-------|
Db|-------------------------------|---------------------------------|
Ab|-------------------------------|---------------------------------|
Eb|-------------------------------|---------------------------------|

eb|-12-12-12-10-10-10-12-12-12-10-10-10-12-12-10-10----|
Bb|-10-10-10-10-10-10-10-10-10-10-10-10-10-10-10-10----|
Gb|----------------------------------------------------|
Db|----------------------------------------------------|
Ab|----------------------------------------------------|
Eb|----------------------------------------------------|
(that bit isn't accurate, strum it how you think it sounds right)

THEN
eb|-/--------------------------------------------------------|
Bb|----------------------------------------------------------|
Gb|----9---10---7---9---5---9/10---12---12-10---10-9---------|
Db|----------------------------------------------------------|
Ab|----------------------------------------------------------|
Eb|----------------------------------------------------------|
						
eb|---------------------------------------------/------|
Bb|----------------------------------------------------|
Gb|-9---10---7---9-------9/10---12---10---9------------|
Db|----------------------------------------------------|
Ab|----------------------------------------------------|
Eb|----------------------------------------------------|

repeat this thing for a bit:
eb|-12-12-12-10-10-10-12-12-12-10-10-10-12-12-10-10----|
Bb|-10-10-10-10-10-10-10-10-10-10-10-10-10-10-10-10----|

then:
eb|8-8-8-8-8-8-8-8-8-8-8-8-8-8-8-8-7-7-7-7-7-7-7-7-10-10-10-10-10-10-10-10-|
Bb|8-8-8-8-8-8-8-8-8-8-8-8-8-8-8-8-8-8-8-8-8-8-8-8-8--8--8--8--8--8--8--8--|
Gb|------------------------------------------------------------------------|
Db|------------------------------------------------------------------------|
Ab|------------------------------------------------------------------------|
Eb|------------------------------------------------------------------------|

eb|-17-17-17-17-17-17-17-17-17-17-17-17-17-17-17-17-|
Bb|-17-17-17-17-17-17-17-17-17-17-17-17-17-17-17-17-|
Gb|-------------------------------------------------|
Db|-------------------------------------------------|
Ab|-------------------------------------------------|
Eb|-------------------------------------------------|

eb|-19-19-19-19-19-19-21-21-21-21-21-21-21\-----|
Bb|-17-17-17-17-17-17-17-17-17-17-17-17-17------|
Gb|---------------------------------------------|
Db|---------------------------------------------|
Ab|---------------------------------------------|
Eb|---------------------------------------------|

eb|---------------------------------|--------------------------------|
Bb|-8--10-10--10-10------------10---|-10------8-8-x-8-8-x-8-------8--|
Gb|-7--9--9---9--9-------------9----|-9-------7-7-x-7-7-x-7-------7--|
Db|---------------------------------|--------------------------------|
Ab|---------------------------------|--------------------------------|
Eb|---------------------------------|--------------------------------|
repeat, then

eb|----------------------------------------------------|
Bb|----------------------------------------------------|
Gb|-9---10---7---9-------9/10---12---10---9------------|
Db|----------------------------------------------------|
Ab|----------------------------------------------------|
Eb|----------------------------------------------------|
repeat until fade...

That's about right i think. Enjoy.
Comments