Akia - California Chords & Tabs

 

California Chords & Tabs

Akia Chords & Tabs

Version: 1 Type: Tab 0 ratings
1 star 2 stars 3 stars 4 stars 5 stars
comments

California Tab

   
-------------------------------------------------------------------------------
			     CALIFORNIA - Akia
-------------------------------------------------------------------------------

http://www.akia.net/

Tabbed by: MiStAhMoOgLe

Tuning: Standard Tuning
[ Tab from: http://www.guitartabs.cc/tabs/a/akia/california_tab.html ]
e|----------3----------1-----------------------------1----|
B|--------3----------1------------4----------3-----3------|
G|------3----------2------------5----------3-----2--------|
D|----5----------3------------5----------5-----0----------|
A|--------------------------6----------5------------------|
E|--------------------------------------------------------|

Repeats Throughout Entire Song

Some parts of the song, i.e. the chorus, end with this.
Just listen to the song to get it.

e|----3h4p3-----------------------------------------------|
B|----------4-6-------------------------------------------|
G|--------------------------------------------------------|
D|--------------------------------------------------------|
A|--------------------------------------------------------|
E|--------------------------------------------------------|

| h  hammer-on
| p  pull-off

===============================================================================
Comments