Aiza Seguerra - Here There And Everywhere Chords & Tabs

 

Here There And Everywhere Chords & Tabs

Aiza Seguerra Chords & Tabs

Version: 1 Type: Tab 0 ratings
1 star 2 stars 3 stars 4 stars 5 stars
comments

Here There And Everywhere Tab

   
Here, there and everywhere
-Aiza Seguerra

tabbed by: Gallardo, R. G.
e-mails:   vanrijn06@yahoo.com
	   gogh35@yahoo.com
date:      2/17/2004

Medyo maganda rin 'yung kanta, 'ung lyrics saka 'ung melody,
Beatles ang original pero ganda rin ng version ni Aiza.

Madali lang 'ung pattern saka mga chords na ginamit, konting praktis lang
pwede ng kantahin. 


Chords:

G    - 320033     D7   - xx0212     Dsus4  - xx0233
Gm   - 355333     F#m  - 244222
Bm   - x24432     Cm   - x35543     
Bb   - x13331     C    - x32010
Am7  - x02010     Am   - x02210          
Em   - 022000     G/B  - x20030

Intro:
    G
e|--3---|
B|--3---|
G|--0---|
D|--0---|
A|--2---|
E|--3---|

    		     Bm            Bb
 To lead a better life			 
e|---------------------------2----------------|
B|-------------------------3-------------3----|
G|-----------------------4-------4-----3------|
D|---------------------4-------------3--------|
A|-------------------2---------2---1----------|
E|--------------------------------------------|

			   Am7     D7	
 I need my love to be here 
e|-----------------------------3---2--2----|
B|---------------------------------1----1--|
G|---------------------------2---2-2-------|
D|---------------------------------0-------|
A|-------------------------0---------------|
E|-----------------------------------------|

   G          Am7    G/B         C          G       Am7
   Here,             making each day of the year
e|-----------------------------------------------------------|
B|----------3-----1--------3-----------1----------3-------1--|
G|-----------------------0-----------0----------0-------0----|
D|--------0-----2------0-----------2----------0-------2------|
A|------------0------2-----------3------------------0--------|
E|-3----------------------------------------3----------------|

   G/B         C             F#m         Bm
   changin' my life with the wave of her hand
e|-------------------------------------------2-----|
B|-------3-----------1-------------2---------3-----|
G|-----0-----------0-------------------------4-4---|
D|---0-----------2---------------4---------4-------|
A|-2-----------3---------------4---------2---------|
E|---------------------------2---------------------|

   F#m     Bm      Em                Am        Am7     D7
   nobody  can     deny that there's something there
e|-------------2-----------------------------------3---2--------|
B|-------2-----3---------------------------1---------------1----|
G|-------------4-4-------0---------------2-------2---2-------2--|
D|-----4-----4---------2---------------2------------------------|
A|---4-----2---------2---------------0---------0---------0------|
E|-2---------------0--------------------------------------------|

   G       Am7     G/B        C                 G       Am7
   There,          running my hands through her hair
e|--------------------------------------------------------------|
B|-------3-------1-------3----------1-----------------3-------1-|
G|-----0-------0-------0----------0-----------------0-------0---|
D|---0-------2-------0----------2-----------------0-------2-----|
A|---------0-------2----------3-------------------------0-------|
E|-3--------------------------------------------3---------------|

   G/B        C            F#m        Bm
   each one believing that love never dies
e|----------------------------------------2-----|
B|-------3----------1------------2--------3-----|
G|-----0----------0-----------------------4-4---|
D|---0----------2--------------4--------4-------|
A|-2----------3--------------4--------2---------|
E|-------------------------2--------------------|
[ Tab from: http://www.guitartabs.cc/tabs/a/aiza_seguerra/here_there_and_everywhere_tab.html ]
   F#m          Bm       Em         Am         Am7     D7 (chorus)  
   watching her eyes and hoping I'm always there
e|------------------2------------------------------3---2--|
B|-------2----------3---------------------1---------------|
G|------------------4-4--------0--------2--------2---2----|
D|-----4----------4----------2--------2-------------------|
A|---4----------2----------2--------0----------0----------|
E|-2---------------------0--------------------------------|


Chorus:
 
             Bb      Gm         Cm
   I want her everywhere, and if she's beside me 
e|------------------------------------------------|
B|---1--------------3-------3----------4----------|
G|-----2----------3------------------3------------|
D|--------------3---------5--------5--------------|
A|-0----------2---------5--------3----------------|
E|--------------------3---------------------------|

   Dsus4          Gm
   I know I would never care
e|-------3----------------3---3-----|
B|-----3----------------3---3-3-----|
G|---2------------------------3-3---|
D|-0------------------5-------5-----|
A|------------------5---------------|
E|----------------3-----------------|

   Cm              Dsus4          G       Am7
   but to love her is to need her everywhere,
e|-----------------------3---------------------------|
B|-------4-------------3----------------3-------1----|
G|-----3-------------2----------------0-------0------|
D|---5-------------0----------------0-------2--------|
A|-3--------------------------------------0----------|
E|--------------------------------3------------------|

   G/B          C          G       Am7
   knowing that love is to share
e|--------------------------------------------|
B|-------3------------1----------3-------1----|
G|-----0------------0----------0-------0------|
D|---0------------2----------0-------2--------|
A|-2------------3------------------0----------|
E|-------------------------3------------------|

   G/B        CM7         F#m         Bm
   each one believing how good it can be
e|----------------------------------------2-----|
B|-------3----------0-----------2---------3-----|
G|-----0----------0-----------------------4-4---|
D|---0----------0-------------4---------4-------|
A|-2----------3-------------4---------2---------|
E|------------------------2---------------------|

   F#m          Bm         Em          Am        Am7     D7
   someone is speaking but she doesn't know he's there
e|------------------2--------------------------------3---2--|
B|-------2----------3------------------------1--------------|
G|------------------4-4----------0---------2-------2---2----|
D|-----4----------4------------2---------2------------------|
A|---4----------2------------2---------0---------0----------|
E|-2-----------------------0--------------------------------|


Repeat chorus

   G/B        C            F#m        Bm
   each one believing that love never dies
e|----------------------------------------2-----|
B|-------3----------1------------2--------3-----|
G|-----0----------0-----------------------4-4---|
D|---0----------2--------------4--------4-------|
A|-2----------3--------------4--------2---------|
E|-------------------------2--------------------|

   F#m          Bm       Em         Am         Am7     D7 (pause)
   watching her eyes and hoping I'm always there
e|------------------2------------------------------3---2---|
B|-------2----------3---------------------1------------1---|
G|------------------4-4--------0--------2--------2---2-2---|
D|-----4----------4----------2--------2----------------0---|
A|---4----------2----------2--------0----------0-----------|
E|-2---------------------0---------------------------------|

       G       Am7     G/B     C         
 to be there,      and everywhere
e|----------------------------------------|
B|-----------3-------1-------3-------1----|
G|---------0-------0-------0-------0------|
D|-------0-------2-------0-------2--------|
A|-------------0-------2-------3----------|
E|-----3----------------------------------|

   G       Am7       G/B      C                   G
   here,   there and everywhere
e|------------------------------------0-----------3-----|
B|-------3-------1---------3--------1----1--------0-----|
G|-----0-------0---------0--------0------------0--0-----|
D|---0-------2---------0--------2-----------2-----0-----|
A|---------0---------2--------3-------------------2-----|
E|-3----------------------------------------------3-----|

.

'yun lang, kung may tanong, e-mail na lang sa akin.
Maraming salamat.

end.
Comments