Air - Universal Traveler Chords & Tabs

 

Universal Traveler Chords & Tabs

Air Chords & Tabs

Version: 1 Type: Tab 0 ratings
1 star 2 stars 3 stars 4 stars 5 stars
comments

Universal Traveler Tab

   
##################################################################################
# This file is the author's own work and represents their interpretation of the  #
# song. You may only use this file for private study, scholarship, or research.  #
##################################################################################

"Universal Traveler"                                                     
as recorded by AIR
from 2004 "Talkie Walkie"

Tuning Info
#####################
e as e
B as B
G as G
D as D
A as A
e as e
Set Frequency to 440 Hz
#####################
[ Tab from: http://www.guitartabs.cc/tabs/a/air/universal_traveler_tab.html ]
INTRO,VERSE,CHORUS,BRIDGE.
Guitar 1(Acoustic Nylon Strings)
 
let ring throughout
e|------3-----------3-------3------------3-------------|Repeat.
B|---3-----3----3--------3-----3-----3-----------------|
G|-----0----------0--------0-----------0---------------|
D|-----------2---------3----------2--------------------|
A|0----------------------------------------------------|
E|-----------------------------------------------------|

e|--------7----------------5----------------------------|Repeat 3 times then:
B|---8------8---8-----8---------------------------------|
G|7-----7-----7-----7---7-------------------------------|
D|------------------------------------------------------|
A|------------------------------------------------------|
E|------------------------------------------------------|

e|------5----------3------------3----------------3------|
B|--8----------6---------6--------6---6-----6-----------|
G|7---7------5---5----5------5------5----5----5---------|
D|------------------------------------------------------|
A|------------------------------------------------------|
E|------------------------------------------------------|



SONG TABBED BY BRUNO GAMBA 2004 ANY QUESTION nobbru@libero.it
Comments