Air - Talisman Chords & Tabs

 

Talisman Chords & Tabs

Air Chords & Tabs

Version: 3 Type: Bass Tab 0 ratings
1 star 2 stars 3 stars 4 stars 5 stars
comments

Talisman Bass Tab

Standard Tuning

Riff 1

G:--------------------------------------------------------
D:------------5h7-----------5h7-5h7---5--7---5-5--8-7-57--
A:--77--7--7-----55--035-5-----------7--7---7-------------
E:--------------------------------------------------------


Bridge 1

G:--------------------------------------
D:--------------------------------------
A:--77-------77-------77-------77-------
E:------567------567------567------567--


Riff 2
[ Tab from: http://www.guitartabs.cc/tabs/a/air/talisman_btab_ver_3.html ]
G:--------------------------------------------------------
D:--------------------------------------------------------
A:--77-------------------------------------0233--3-22-55--
E:-----567--7-6-55--0h3-0h5--5-3-00--0233-----------------


Bridge 2

G:---------------------------------------------
D:---------------------------------------------
A:----------5h7--------5h7---------5h7---------
E:--00--0-0----00--0-0-----00--0-0----00--0-0--


Riff 1   x2
Bridge 1 x1
Riff 2   x2
Bridge 2 x1
Riff 1   x4
Bridge 1 x1
Riff 2   x2
Bridge 2 x1
Comments