Air - New Star In The Sky Chords & Tabs

 

New Star In The Sky Chords & Tabs

Air Chords & Tabs

Version: 2 Type: Tab 0 ratings
1 star 2 stars 3 stars 4 stars 5 stars
comments

New Star In The Sky Tab

   
AIR
New Star In The Sky

Tabbed by Miles Philip
any suggestions email me at huntly@iinet.net.au

Nobody seems to do any air tabs for some reason
and considering they have some really good accoustic
guitar peices in their songs i cant see why this is.

heres my tab of "new star in the sky" the first part
im pretty damn sure is accurate, and the second part
i think is accurate, its hard to tell.
anyway enjoy

intro is just


	Ab5	G	F#	F
E--------4------3-------2-------1--------------------------
B--------4------3-------2-------1--------------------------
G--------5------4-------3-------2--------------------------
D--------6------5-------4-------3--------------------------
A--------6------5-------4-------3--------------------------
E--------4------3-------2-------1--------------------------

Then when it changes it goes
[ Tab from: http://www.guitartabs.cc/tabs/a/air/new_star_in_the_sky_tab_ver_2.html ]
	D	Am
E-------2--------------------------------------------------
B-------3--------1-----------------------------------------
G-------2--------2-----------------------------------------
D----------------2-----------------------------------------
A----------------------------------------------------------
E----------------------------------------------------------

then this is the part im not sure about (and im not sure what these chords are)

E-----6-----6-----4-----4----------------------------------
B-----6-----6-----4-----4----------------------------------G-----8-----7-----6-----5----------------------------------
D-----8-----8-----6-----6----------------------------------
A-----6-----8-----4-----6----------------------------------
E-----6-----6-----4-----4----------------------------------

i havent figured out the chorus but after the chorus the bridge is just the
intro chords again.

Sure its unfinished but i hope it fills the void for all the air fans
Comments