Air - Alone In Kyoto Chords & Tabs

 

Alone In Kyoto Chords & Tabs

Air Chords & Tabs

Version: 2 Type: Tab 0 ratings
1 star 2 stars 3 stars 4 stars 5 stars
comments

Alone In Kyoto Tab

   
 /-------~/º)(·)(º\~--------\
<    Air - Alone in Kyoto    >
 \-------~\º)(·)(º/~--------/

Tabbed by: Frédéric Renauldon (Please go to his page: http://membres.lycos.fr/frenchband)

Submitted by: Emilio Crudele - Crudo
E-Mail: negro_fan@hotmail.com
______
|NOTE| This song is not tabbed by it's original author and might be not used COMERCIALLY.
ºººººº

Language: English/Inglés

----------------------------------------------------------------------------

Capot 5
Dm = (557765), F = (587565), Dsus4 = (x55785), G6/A = (57575x), D#7M = (6687xx), C#7M = 
G = (355433)

Riff 1 : (x4)
    Dm                       F                       Dm                          F
e|--------------------------------------------------------------------------------------------------8-5-------|
B|-----------6-5---------------------5h6------------------------6-5----------------------------------6-5------|
G|--------7-------5-----7---------5-------5-----7------------7-------5----7--------------5----------------7---|
D|-----7-------------7---------7-------------7------------7-------------7-------------7-----------------------|
A|--5------------------------8-------------------------5---------------------------8--------------------------|
E|------------------------------------------------------------------------------------------------------------|
[ Tab from: http://www.guitartabs.cc/tabs/a/air/alone_in_kyoto_tab_ver_2.html ]
Riff 2 : (x4)+End Riff2
     Dsus4                                                                               
                    End Riff2 (G6/A)
e|-----5----------5----------5------------5----------5------------5----------5------------5----------5---|-------x-------|
B|-----------8----------8------------8----------8------------8----------8------------8----------8--------|-------5-------|
G|-------7----------7------------7----------7------------7----------7------------7----------7------------|-------7-------|
D|-------------------------------------------------------------------------------------------------------|-------5-------|
A|-------------------------------------------------------5------------------------5----------------------|-------7-------|
E|--6--------------------------8-------------------------------------------------------------------------|-------5-------|

Fin : (x4) (Capot 3 or without capot)
        D#7M     C#7M    D#7M    C#7M     D#7M     G
e|--------x-----------x-----------x-----------x-----------x-----------3--------|
B|--------x-----------x-----------x-----------x-----------x-----------3--------|
G|--------7-----------5-----------7-----------5-----------7-----------4--------|
D|--------8-----------6-----------8-----------6-----------8-----------5--------|
A|--------6-----------4-----------6-----------4-----------6-----------5--------|
E|--------6-----------4-----------6-----------4-----------6-----------3--------|

I give all the thanks to Frédéric. He's the one who made this tab and I respect him. If 
tab is on the Top 100, I will e-mail him. So all this is yours, Fréd. I repeat, go to 
web please: http://membres.lycos.fr/frenchband
Comments