Aina - Serendipity Chords & Tabs

 

Serendipity Chords & Tabs

Aina Chords & Tabs

Version: 1 Type: Tab 0 ratings
1 star 2 stars 3 stars 4 stars 5 stars
comments

Serendipity Tab

Aina
Serendipity
Days of Rising doom - The Metal Opera

Aina - Days of Rising Doom is a metal opera, created by Sascha Paeth, Robert Hunecke-
Rizzo, Amanda Somerville and Miro. A lot of different artists such as Tobias Sammet
(Edguy), Glen Hughes (Ex Deep Purple), Candice Night (Blackmore's Night) and Marco
Hietala (Nightwish, Tarot) have sang a part on it. 

Intro
[ Tab from: http://www.guitartabs.cc/tabs/a/aina/serendipity_tab.html ]
e|-------0-2-----|-----0-----------|-------0-2-3-2-0---0-2---2-0-|
B|-0-2-3-----2-2-|-2-3---3-2-0-2-3-|-0-2-3-----------3-----3-----|
G|---------------|-----------------|-----------------------------|
D|---------------|-----------------|-----------------------------|
A|---------------|-----------------|-----------------------------|
E|---------------|-----------------|-----------------------------|

e|----9-10-12-14-9-9-|-9-10-12-10-9----9-10-|
B|-12----------------|--------------12------|
G|-------------------|----------------------|
D|-------------------|----------------------|
A|-------------------|----------------------|
E|-------------------|----------------------|

e|----9-10-12-14-15-14-12-10-12-14-10-14-12-|
B|-12---------------------------------------|
G|------------------------------------------|
D|------------------------------------------|
A|------------------------------------------|
E|------------------------------------------|
Comments