Aiden - Last Sunrise Chords & Tabs

 

Last Sunrise Chords & Tabs

Aiden Chords & Tabs

Version: 6 Type: Tab

Last Sunrise Tab

   
Intro
Guitar 1
e|-------------------------------------------------------------|
B|-------------------------------------------------------------|
G|-------------------------------------------------------------|
D|-00-6-0-4-0-6-0-00-6-0-4-0-6-0-00-6-0-4-0-6-0-7-0-4-0-6-0-3--|x4
A|-00-------------00-------------00----------------------------|
E|-00-------------00-------------00----------------------------|
pm...             ..             .. 
Guitar 2
e|-------------------------------------------------------------|
B|-------------------------------------------------------------|
G|-------------------------------------------------------------|
D|-00-2-0-2-0-2-0-00-2-0-2-0-2-0-00-2-0-2-0-2-0-4-0-2-0-2-1-0--|x4
A|-00-------------00-------------00----------------------------|
E|-00-------------00-------------00----------------------------|
pm...             ..             ..

Verse
Guitar 1
e|------------------------------------------------------------------|
B|------------------------------------------------------------------|
G|------------------------------------------------------------------|
D|-22-222---------22-222---------22-277--------77-799--------99-922-|x2
A|-22-222---------22-222---------22-277--------77-799--------99-922-|
E|-00-000---------00-000---------00-055--------55-577--------77-700-|

Guitar 2
e|---|
B|---|
G|---|
D|-13|
A|-x-|x64
E|-11|

Chorus
Guitar 1
e|-----------------------------------------------------------------|
B|-----------------------------------------------------------------|
G|-----------------------------------------------------------------|
D|3333333333333333222222222222222277777777777777779999999999999999-|
A|3333333333333333000000000000000077777777777777779999999999999999-|
E|1111111111111111000000000000000055555555555555557777777777777777-|

Guitar 2
e|--------------------------------------------|
B|--------------------------------------------|
G|--------------------------------------------|
D|13-13-13-13-13-13-13-13-11-11-11-11-9-9-9-9-|x3
A|x--x--x--x--x--x--x--x--x--x--x--x--x-x-x-x-|
E|11-11-11-11-11-11-11-11-9--9--9--9--7-7-7-7-|

e|-----------------------------------------|
B|-----------------------------------------|
G|-8-8-8-8-9-9-9-9-11-11-11-11-11-11-11-11-|
D|-x-x-x-x-x-x-x-x-x--x--x--x--x--x--x--x--|x1
A|-6-6-6-6-7-7-7-7-9--9--9--9--9--9--9--9--|
E|-----------------------------------------|


Verse
Guitar 1
e|------------------------------------------------------------------|
B|------------------------------------------------------------------|
G|------------------------------------------------------------------|
D|-22-222---------22-222---------22-277--------77-799--------99-922-|x2
A|-22-222---------22-222---------22-277--------77-799--------99-922-|
E|-00-000---------00-000---------00-055--------55-577--------77-700-|

Guitar 2
e|---|
B|---|
G|---|
D|-13|
A|-x-|x64
E|-11|

Pre-Chorus
Guitar 1
e|--------------------------------------------------------------|
B|------4--2-1------------1-2-4-----4--2-1-----------1-2-4------|
G|-2--2--------4-6-2-----------2--2--------4-6-2-4-6------2--1--|
D|--------------------------------------------------------------|
A|--------------------------------------------------------------|
E|--------------------------------------------------------------|

Guitar 2
e|--------------------------------------------------------------|
B|--------------------------------------------------------------|
G|--------------------------------------------------------------|
D|-2--2-9--99--7--7-7---9-1-2-42--2-9--99--7-7-7---9-1-2-42--4--|
A|-2--2-9--99--7--7-7---9------2--2-9--99--7-7-7---9------------|
E|-0--0-7--77--5--5-5---7------0--0-7--77--5-5-5---7------------|
pm.         .     . .                   .    . .
Chorus
Guitar 1
e|-----------------------------------------------------------------|
B|-----------------------------------------------------------------|
G|-----------------------------------------------------------------|
D|3333333333333333222222222222222277777777777777779999999999999999-|
A|3333333333333333000000000000000077777777777777779999999999999999-|
E|1111111111111111000000000000000055555555555555557777777777777777-|

Guitar 2
e|--------------------------------------------|
B|--------------------------------------------|
G|--------------------------------------------|
D|13-13-13-13-13-13-13-13-11-11-11-11-9-9-9-9-|x3
A|x--x--x--x--x--x--x--x--x--x--x--x--x-x-x-x-|
E|11-11-11-11-11-11-11-11-9--9--9--9--7-7-7-7-|
[ Tab from: http://www.guitartabs.cc/tabs/a/aiden/last_sunrise_tab_ver_6.html ]
e|-----------------------------------------|
B|-----------------------------------------|
G|-8-8-8-8-9-9-9-9-11-11-11-11-11-11-11-11-|
D|-x-x-x-x-x-x-x-x-x--x--x--x--x--x--x--x--|x1
A|-6-6-6-6-7-7-7-7-9--9--9--9--9--9--9--9--|
E|-----------------------------------------|

Bridge
Guitar 1
e|-----------------------------------------|
B|-----------------------------------------|
G|------6---------6---------6---------8----|
D|---6----6----6----6----6----6----6----6--|x2
A|-4---------4---------4---------4---------|
E|-----------------------------------------|

Guitar 2
e|------------------------------------------------|
B|------------------------------------------------|
G|------------------------------------------------|
D|-7----------7-9--------9-2--------2-4--------4--|x2
A|-7----------7-9--------9-2--------2-4--------4--|
E|-5----------5-7--------7-0--------0-2--------2--|

Guitar 1 & 2
e|-----------------------------------------------|
B|-----------------------------------------------|
G|-----------------------------------------------|
D|-777777777777-9999999999-2222222222-4444444444-|x2
A|-777777777777-9999999999-2222222222-4444444444-|
E|-555555555555-7777777777-0000000000-2222222222-|

Guitar 2
e|---|
B|---|
G|---|
D|-13|
A|-x-|x64
E|-11|

Guitar 1
e|------------------------|
B|------------------------|
G|------------------------|
D|-2-----4-2-1-2-----4-2-1|
A|------------------------|
E|------------------------|


e|------------------------------------------------------------------|
B|------------------------------------------------------------------|
G|------------------------------------------------------------------|
D|-22-222---------22-222---------22-277--------77-799--------99-922-|
A|-22-222---------22-222---------22-277--------77-799--------99-922-|
E|-00-000---------00-000---------00-055--------55-577--------77-700-|


Pre-Chorus
Guitar 1
e|--------------------------------------------------------------|
B|------4--2-1------------1-2-4-----4--2-1-----------1-2-4------|
G|-2--2--------4-6-2-----------2--2--------4-6-2-4-6------2--1--|
D|--------------------------------------------------------------|
A|--------------------------------------------------------------|
E|--------------------------------------------------------------|

Guitar 2
e|--------------------------------------------------------------|
B|--------------------------------------------------------------|
G|--------------------------------------------------------------|
D|-2--2-9--99--7--7-7---9-1-2-42--2-9--99--7-7-7---9-1-2-42--4--|
A|-2--2-9--99--7--7-7---9------2--2-9--99--7-7-7---9------------|
E|-0--0-7--77--5--5-5---7------0--0-7--77--5-5-5---7------------|
pm.         .     . .                   .    . .

Chorus
Guitar 1
e|-----------------------------------------------------------------|
B|-----------------------------------------------------------------|
G|-----------------------------------------------------------------|
D|3333333333333333222222222222222277777777777777779999999999999999-|
A|3333333333333333000000000000000077777777777777779999999999999999-|
E|1111111111111111000000000000000055555555555555557777777777777777-|

Guitar 2
e|--------------------------------------------|
B|--------------------------------------------|
G|--------------------------------------------|
D|13-13-13-13-13-13-13-13-11-11-11-11-9-9-9-9-|x3
A|x--x--x--x--x--x--x--x--x--x--x--x--x-x-x-x-|
E|11-11-11-11-11-11-11-11-9--9--9--9--7-7-7-7-|

e|-----------------------------------------|
B|-----------------------------------------|
G|-8-8-8-8-9-9-9-9-11-11-11-11-11-11-11-11-|
D|-x-x-x-x-x-x-x-x-x--x--x--x--x--x--x--x--|x1
A|-6-6-6-6-7-7-7-7-9--9--9--9--9--9--9--9--|
E|-----------------------------------------|

outro
Guitar 1
e|-------------------------------------------------------------|
B|-------------------------------------------------------------|
G|-------------------------------------------------------------|
D|-00-6-0-4-0-6-0-00-6-0-4-0-6-0-00-6-0-4-0-6-0-7-0-4-0-6-0-3--|x4
A|-00-------------00-------------00----------------------------|
E|-00-------------00-------------00----------------------------|
pm...             ..             .. 
Guitar 2
e|-------------------------------------------------------------|
B|-------------------------------------------------------------|
G|-------------------------------------------------------------|
D|-00-2-0-2-0-2-0-00-2-0-2-0-2-0-00-2-0-2-0-2-0-4-0-2-0-2-1-0--|x4
A|-00-------------00-------------00----------------------------|
E|-00-------------00-------------00----------------------------|
pm...             ..             ..

please rate

post this tab everywhere but give me credit from my website

(www.freewebs.com/punkrocker-home)
(www.freewebs.com/punkrocker-home)
(www.freewebs.com/punkrocker-home)
(www.freewebs.com/punkrocker-home)
(www.freewebs.com/punkrocker-home)
(www.freewebs.com/punkrocker-home)