Aiden - Last Sunrise Chords & Tabs

 

Last Sunrise Chords & Tabs

Aiden Chords & Tabs

Version: 5 Type: Tab

Last Sunrise Tab

   
The Last Sunrise - Aiden

Tabbed by: BDonGraffiti
Email: SprtXplrer@aol.com

Tuning: Standard

the intro in easier if you play it as "legatos" 

Intro: Guitar 1 (Left earphone)
e|-------------------------------------|another way to play this is with
B|-------------------------------------|open notes on the D string 
G|-------------------------------------|insteas of 4s on the A string
D|---6-4-6----6-4-6----6-4-6-7-6-4-4h6-|4x
A|-44-4-4-4-44-4-4-4-44-4-4-4-4-4-4----|
E|-------------------------------------|
PM ..       ..       ..           

Intro: Gutiar 2 (Right earphone)
e|-------------------------------------|
B|-------------------------------------|
G|-------------------------------------|
D|-------------------------------------|4x
A|-44746474-44746474-4474647494746h7p6-|
E|-------------------------------------|
PM ..       ..       ..

Verse 1: Guitar 1
e|---------------------------------|     |---|
B|---------------------------------|     |---|
G|-666-666666-666222-222444-444666-|2x   |---|
D|-666-666666-666222-222444-444666-|verse|-2~|
A|-444-444444-444000-000222-222444-|ends |-2~|
E|---------------------------------|with |-0~|

Verse 1: Guitar 2 (play only one powerchord tremelo) 
e|----|               |-------|
B|----|               |-------|
G|-13-|verse ends with|-------|
D|--x-|               |-------|
A|-11-|               |-7~-9~-|
E|----|               |-------|

Chorus: Guitar 1 strum tremelo
e|---------|
B|---------|
G|-9-6-2-4-|
D|-9-6-2-4-|
A|-7-4-0-2-|
E|---------|
[ Tab from: http://www.guitartabs.cc/tabs/a/aiden/last_sunrise_tab_ver_5.html ]
Chorus: Guitar 2 strum tremelo
e|---------------------------------|
B|---------------------------------|
G|-13-11-9-13-11-9-13-11-9-13-11-9-|
D|--x--x-x--x--x-x--x--x-x--x--x-x-|
A|-11--9-7-11--9-7-11--9-7-11--9-7-|
E|---------------------------------|

Verse 2 (guitar 1 & 2 play verse 1)

Pre-Chorus (after verse): Guitar 1
e|-------------------------------------------------------|
B|-------------------------------------------------------|
G|-------------------------------------------------------|
D|----9~-7-6-4-6----6-7-9----9~-7-6-4-6---4-6-7-9--------|
A|-7~------------7~-------7~------------7----------7~-6~-|
E|-------------------------------------------------------|

Pre Chorush: Guitar 2
e|-----------------------|
B|-----------------------|
G|-----------------------|2x
D|-----------------1-2-4-|
A|-4~--2~-x-2-0~-2-------|
E|-----------------------|

both guitars play Chorus 2x
after chorus both guitar play 
e|----|
B|----|
G|-4~-|
D|-4~-|
A|-2~-|
E|----|

Bridge: Guitar 1 (little distortion)
e|------------------|  |-------|  
B|------------------|  |--7----|  
G|---6---6---6---8--|  |---98--|  
D|--6-6-6-6-6-6-6-6-|2x|-6---9-|6x
A|-4---4---4---4----|  |-------|  
E|------------------|  |-------|  

Bridge: Guitar 2
e|---------------|  |--------------|
B|---------------|  |--------------|
G|---------------|  |--------------|
D|---------------|2x|-7-9-11-2-7-9-|
A|---------------|  |-7-9-11-2-7-9-|
E|-5-5h7-7h9-9p0-|  |-5-7--9-0-5-7-|

Then both guitars play Verse
After verse both gutars play Pre-Chorus
After Pre-Chorus both gutiars play Chorus
After Chorus play Intro

and that's it yo! now buy yourself a good movie to congratulate yourself..

| /  slide up
| \  slide down
| h  hammer-on
| p  pull-off
| ~  vibrato
| <> harmonic
| x  mute note
| .  palm mute PM