Aiden - Last Sunrise Chords & Tabs

 

Last Sunrise Chords & Tabs

Aiden Chords & Tabs

Version: 4 Type: Tab

Last Sunrise Tab

p=pull
*=plam mute
intro guitar 1(repeat 4 times)
e|----------------------------------------------------------------------------|
b|----------------------------------------------------------------------------|
g|----------------------------------------------------------------------------|
d|----------------------------------------------------------------------------|
a|----------------------------------------------------------------------------|
e|--00-12p9-11p9-12p9-00-12p9-11p9-12p9-00-12p9-11p9-12p9-14p9-12p9-11p9-12p9-|
    **                **                **
intro guitar2 (repeat 4 times)
e|---------------------------------------------------------------------------|
b|---------------------------------------------------------------------------|
g|---------------------------------------------------------------------------|
d|---------------------------------------------------------------------------|
a|---11p7-9p7-11p7--11p7-9p7-11p7--11p7-9p7-11p7-12p7-9p7-11p7---------------|
e|-00-------------00-------------00------------------------------------------|
   **             **             **
verse 1
guitar1 just repeat all through the verse (fast)
e|---------------------------------------------------------------------------|
b|---------------------------------------------------------------------------|
g|--13-13-13-13-13-13-13-13-13-13-13-13-13-13-13-13-13-13-13-13-13-13-13-13--|
d|--x--x--x--x--x--x--x--x--x--x--x--x--x--x--x--x--x--x--x--x--x--x--x--x---|
a|--11-11-11-11-11-11-11-11-11-11-11-11-11-11-11-11-11-11-11-11-11-11-11-11--|
e|---------------------------------------------------------------------------|
[ Tab from: http://www.guitartabs.cc/tabs/a/aiden/last_sunrise_tab_ver_4.html ]
guitar2 repeat (fast) look for pattren
e|---------------------------------------------------------------------------|
b|---------------------------------------------------------------------------|
g|--6-6-6-6--66-4-4-4-4--4-4--2-2-2-2--2-2--4-4-4-4--6-6-6-6-----------------|
d|--6-6-6-6--66-4-4-4-4--4-4--2-2-2-2--2-2--4-4-4-4--6-6-6-6-----------------|
a|--4-4-4-4--44-2-2-2-2--2-2--0-0-0-0--0-0--2-2-2-2--4-4-4-4-----------------|
e|---------------------------------------------------------------------------|

going into the chorus
e|---------------------------------------------------------------------------|
b|---------------------------------------------------------------------------|
g|-------6~~~--4~~~----------------------------------------------------------|
d|-------6~~~--4~~~----------------------------------------------------------|
a|-------4~~~--2~~~----------------------------------------------------------|
e|---------------------------------------------------------------------------|

chorus
e|--0-0-0-0-0-0-0-0-----------------------------------------------------------|
b|--0-0-0-0-0-0-0-0-----------------------------------------------------------|
g|--1-1-1-1-1-1-1-1--4-4-4-4-4-4-4-4--6-6-6-6-6-6-6-6--4-4-4-4-4-4-4-4--2-2-2-|
d|--2-2-2-2-2-2-2-2--4-4-4-4-4-4-4-4--6-6-6-6-6-6-6-6--4-4-4-4-4-4-4-4--2-2-2-|
a|--2-2-2-2-2-2-2-2--2-2-2-2-2-2-2-2--4-4-4-4-4-4-4-4--2-2-2-2-2-2-2-2--0-0-0-|
e|----------------------------------------------------------------------------|
still the chorus|the end of the chorus
e|--------------|------------------------------------------------------------|
b|--------------|------------------------------------------------------------|
g|--2-2-2-2-----|-4-4-4-4-4-4-4-4-4-4-4-4-4-4-4-4-4-4-4-4--------------------|
d|--2-2-2-2-----|-4-4-4-4-4-4-4-4-4-4-4-4-4-4-4-4-4-4-4-4--------------------|
a|--0-0-0-0-----|-2-2-2-2-2-2-2-2-2-2-2-2-2-2-2-2-2-2-2-2--------------------|
e|---------------------------------------------------------------------------|

verse 2 same as verse 1

pre-chorus
e|---------------------------------------------------------------------------|
b|---------------------------------------------------------------------------|
g|----6~~~~--4~~~~~--2~~~~~--4~~~~--6~~~~--4~~~~-----------------------------|
d|----6~~~~--4~~~~~--2~~~~~--4~~~~--6~~~~--4~~~~-----------------------------|
a|----4~~~~--2~~~~~--0~~~~~--2~~~~--4~~~~--2~~~~-----------------------------|
e|---------------------------------------------------------------------------|

then chorus

thats all i have right now more later