Aiden - Last Sunrise Chords & Tabs

 

Last Sunrise Chords & Tabs

Aiden Chords & Tabs

Version: 2 Type: Bass Tab

Last Sunrise Bass Tab

Band: Aiden
Title: The Last Sunrise
Album: Nightmare Anatomy
Tabbed By: Mike Parker

Tuning: DADG

This is pretty much all right, most of other tabs on here sound nothing like the song.

Intro
G|-----------------------------|
D|-----------------------------|
A|44-44-44-00-22-44------------| X3
D|-----------------------------|

G|----------------------------|
D|----------------------------|
A|44-44-44--------------------|
D|----------------------------|



Verse
G|----------------------------|
D|----------------------------|
A|44-44444-444-77-777-99------| X2
D|----------------------------|

G|----------------------------|
D|----------------------------|
A|-7~--6~---------------------|
D|----------------------------|

Chorus

G|---------------------------------------------------------------------|
D|---------------------------------------------------------------------|
A|7777777777777777-4444444444444444-0000000000000000-2222222222222222--|
D|---------------------------------------------------------------------|

Verse
G|----------------------------|
D|----------------------------|
A|44-44444-444-77-777-99------| X2
D|----------------------------|

2nd chorus (sunrise, sunset will you wash away..)

G|----------------------------------|
D|----------------------------------|
A|4-44/14-1414\9-99/14~~-11-12-14---|  X2 
D|----------------------------------|

2nd Time

G|----------------------------|
D|----------------------------|
A|-7~--6~---------------------| 
D|----------------------------|

Chorus
[ Tab from: http://www.guitartabs.cc/tabs/a/aiden/last_sunrise_btab_ver_2.html ]
G|---------------------------------------------------------------------|
D|---------------------------------------------------------------------|
A|7777777777777777-4444444444444444-0000000000000000-2222222222222222--|
D|---------------------------------------------------------------------| X2

Bridge

G|----|------------------------|
D|----|------------------------|
A|-4~~|-0~-2~-4~-7~------------| 
D|----|------------------------|X2

G|--------------------------------------------------------------|
D|--------------------------------------------------------------|
A|000000000000-222222222222-444444444444-777777777777-----------| 
D|--------------------------------------------------------------|

G|--------------------------------|
D|--------------------------------|
A|000000000000-222222222222-------| 
D|--------------------------------|

Verse
G|----------------------------|
D|----------------------------|
A|44-44444-444-77-777-99------| X2
D|----------------------------|


2nd chorus (sunrise, sunset will you wash away..)

G|----------------------------------|
D|----------------------------------|
A|4-44/14-1414\9-99/14~~-11-12-14---|  X2 
D|----------------------------------|

2nd Time

G|----------------------------|
D|----------------------------|
A|-7~--6~---------------------| 
D|----------------------------|

Chorus

G|---------------------------------------------------------------------|
D|---------------------------------------------------------------------|
A|7777777777777777-4444444444444444-0000000000000000-2222222222222222--|
D|---------------------------------------------------------------------| X2

Intro
G|-----------------------------|
D|-----------------------------|
A|44-44-44-00-22-44------------| X4
D|-----------------------------|

End On

Intro
G|-----------------------------|
D|-----------------------------|
A|-44~~~-----------------------|
D|-----------------------------|

And thats it