Aiden - Die Romantic Chords & Tabs

 

Die Romantic Chords & Tabs

Aiden Chords & Tabs

Version: 5 Type: Tab

Die Romantic Tab

   
Title:     Die Romantic
Artist:    Aiden
Album:     Nightmare Anatomy

Tabbed By: Evan Lugo
Email:     koolkid1515@hotmail.com

Tuning: Drop D Tuned Down 1/2 Step
        (Db Ab Db Gb Bb Eb) 

x = Mute String
h = Hammer
p = Pull Off
* = Palm Mute



Guitar 1 Intro

|----------------------------------------------------------------------------|
|----------------------------------------------------------------------------|
|----------------------------------------------------------------------------|
|--4-4-xxxx-4-4-xxxx-4-4-xxxx-4-4-xxxx-11-11-xxxx-11-11-xxxx-2-2-xxx-2-2-xxx-|
|--4-4-xxxx-4-4-xxxx-4-4-xxxx-4-4-xxxx-11-11-xxxx-11-11-xxxx-2-2-xxx-2-2-xxx-|
|--4-4-xxxx-4-4-xxxx-4-4-xxxx-4-4-xxxx-11-11-xxxx-11-11-xxxx-2-2-xxx-2-2-xxx-| 2x

Guitar 2 Intro

|--------------------------------------------------------------------------|
|--------------------------------------------------------------------------|
|--9-9-xxxx-9-9-xxxx-7-7-xxxx-7-7-xxxx-6-6-xxxx-6-6-xxxx-7-7-xxxx-7-7-xxxx-| 
|--x-x-xxxx-x-x-xxxx-x-x-xxxx-x-x-xxxx-x-x-xxxx-x-x-xxxx-x-x-xxxx-x-x-xxxx-|
|--7-7-xxxx-7-7-xxxx-5-5-xxxx-5-5-xxxx-4-4-xxxx-4-4-xxxx-5-5-xxxx-5-5-xxxx-|
|--------------------------------------------------------------------------| 2x



Guiatr 1 Verse

|---------------------------------|
|---------------------------------|
|----7-9-----6-6-----6-7-----6-7--| 
|--7-------5----------------------|
|------------------5-------5------|
|---------------------------------| 2x



Guiatr 2 Verse

|-----4-5-4-7p5p4-5-----|
|--5--------------------|
|-----------------------|
|-----------------------|
|-----------------------|
|-----------------------| 7x


|-----4-5---------------|
|--5--------------------|
|-----------------------| 
|-----------------------|
|-----------------------|
|-----------------------| 1x



Both Guitars Chorus

|------------------------------------|
|------------------------------------|
|------------------------------------|
|--7777777777777777-2222222222222222-|
|--7777777777777777-2222222222222222-|
|--7777777777777777-2222222222222222-|

[ Tab from: http://www.guitartabs.cc/tabs/a/aiden/die_romantic_tab_ver_5.html ]
|------------------------------------|
|------------------------------------|
|------------------------------------|
|--4444444444444444-0000000000000000-|
|--4444444444444444-0000000000000000-|
|--4444444444444444-0000000000000000-| 
(After 2nd verse let last note ring 2nd time through before the bridge)



Guitar 1 Bridge

|-------------------------|
|-------------------------|
|-------------------------|
|--4--4--2--2--0--0--2--2-|
|--4--4--2--2--0--0--2--2-|
|--4--4--2--2--0--0--2--2-| 3x (Comes in after Guitar 2 plays through once)


|------------|
|------------|
|------------|
|--4--44--44-|
|--4--44--44-|
|--4--44--44-| 2x



Guitar 2 Bridge

|------------------|
|------------------|
|--5h6-6h7-6p4-4p2-|
|------------------|
|------------------|
|------------------| 7x



Guitar 1 Breakdown

|-------------------------------------------------------------------------------|
|-------------------------------------------------------------------------------|
|-----------------------------------------------13--13--13-----------13--13--13-|
|--4-444444-4--4--4--4-444444-4--4--4--0-000000-------------0-000000------------|
|--4-444444-4--4--4--4-444444-4--4--4--0-000000-11--11--11--0-000000-11--11--11-|
|--4-444444-4--4--4--4-444444-4--4--4--0-000000-0---0---0---0-000000-0---0---0--|
     ******            ******            ******               ******


|----------------------------------------------------------------------------|
|----------------------------------------------------------------------------|
|-----------------------------------------------13--13--13-------------------|
|--4-444444-4--4--4--4-444444-4--4--4--0-000000-------------0-000000-0--0--0-|
|--4-444444-4--4--4--4-444444-4--4--4--0-000000-11--11--11--0-000000-0--0--0-|
|--4-444444-4--4--4--4-444444-4--4--4--0-000000-0---0---0---0-000000-0--0--0-|
     ******            ******            ******               ****** *  *  *


Both Guitars Outro

|-------------------------------------------------------------------|
|-------------------------------------------------------------------|
|-------7--------7--------7--------7--------7--------7--------7---7-|
|--0000-7---0000-7---0000-7---0000-7---0000-7---0000-7---0000-7---7-|
|--0000-5---0000-5---0000-5---0000-5---0000-5---0000-5---0000-5---5-|
|--0000-0---0000-0---0000-0---0000-0---0000-0---0000-0---0000-0---0-| 
(Let last chord ring)
   ****     ****     ****     ****     ****     ****     ****

Intro
Verse
Chorus
Verse
Chorus 2x
Bridge
Breakdown
Verse
Chorus 2x
Outro