Aguilera Christina - Im Okay Chords & Tabs

 

Im Okay Chords & Tabs

Aguilera Christina Chords & Tabs

Version: 1 Type: Tab 1 rating
1 star 2 stars 3 stars 4 stars 5 stars
comments

Im Okay Tab

   
Christina Aguilera - I'm Okay

Tabbed out by Dan Taylor
Any questions/comments/requests email: wen@pjear.org

kthx


I didn't finish writing out the order of the figures and such blah blah blah
because I can play it just fine but play em out and see what they sound like
and you'll pick it up just fine

Fig 1.a
|------------2---------------0-----|
|------3-------3-------3-------3---|
|--------4-------4-------4-------4-|
|----------4---------------4-------|
|(0)-2-------------2-0-------------|
|----------------------------------|

Fig 1.b
|-----------0--------------0-----|
|-----3-------3------0-------3---|
|-------4-------4------4-------4-|
|---------4--------------4-------|
|--------------------------------|
|-0-3-------------0-2------------|


Play Fig 1.a->1.b 6 times
Play Fig 1.a->1.b 3 times


Fig 2.a
|---------0---------------0------|
|----0------0-------0-------0----|
|------0------0-------0-------0--|
|--------2------2-------2--------|
|-2------------------------------|
|---0-------------0--------------|
[ Tab from: http://www.guitartabs.cc/tabs/a/aguilera_christina/im_okay_tab.html ]
Fig 2.b
|----------2--------------2------|
|----3-------3------3-------3----|
|------4-------4------4-------4--|
|--------4--------------4--------|
|-0-2------------2-2-------------|
|--------------------------------|

Fig 2.c
|----------2----2---------2------|
|----2-------2-------2------2----|
|------3-------3-------3------3--|
|--------4---------------4-------|
|--------------------------------|
|-0-2~~~~~~~~~~~~~~~~~~~~~~~~~~--|

Fig 2.d
|----------3---------------3-----| - This bar is weird, I can play it fine
|-----3------3-------3-------3---| - but I didn't tab it fine, haha lazy++;
|-------4------4-------4-------4-|
|---------5--------------5-------| - anyways, play with the order of the bass
|--------------------------------| - note and you'll get it, it's only different
|-2/3~~~~~~~~~~~-2~~~~~~~~~~~~~~-| - than whats shown here once.



Chorus thing whaever - 

G  [3 2 0 0 3 3]\
G  [3 2 0 0 0 3] --- use whichever one you think sounds best
G  [3 5 5 4 3 3]/ 

D2 [x x 0 2 2 0]
D9 [x x 0 2 3 0]
A9 [x 0 2 2 0 0]

G D G D G [D D9 D2] [A] [A9]

|------8------7-----3/5---|  -- Figure out the rhythym yourself, mute-
|------8------7-----3/5---|  -- strum the chord where *'s
|---*--9----*-7---*-4/6---|
|---*--10---*-9---*-5/7---|
|---*--10---*-9---*-5/7---|
|-8-*--8--7-*-7-5-*-3/5-7-|


yeeaaah, that's it. have fun!

Comments