Aguado Dionisio - Etude In C Chords & Tabs

 

Etude In C Chords & Tabs

Aguado Dionisio Chords & Tabs

Version: 1 Type: Tab 0 ratings
1 star 2 stars 3 stars 4 stars 5 stars
comments

Etude In C Tab

Moderato

     |           |            |           |            |           |
 e|--------0-----------0---|--------0-----------0---|--------1-----------1---|
 B|-----1-----1-----1-----1|-----1-----1-----1-----1|-----0-----0-----0------|
 G|--0-----------0---------|--0-----------0---------|--0-----------0--------0|
 D|--------------------2---|--------------------2---|--0-----------------3---|
 A|--3---------------------|--3---------------------|------------------------|
 E|--------------3---------|--------------3---------|--------------3---------|

     |           |            |           |            |           |
 e|--------1-----------1---|--------0-----------0---|--------0-----------0---|
 B|-----0-----0-----0-----0|-----1-----1-----1-----1|-----1-----1-----1-----1|
 G|--0-----------0-----3---|--0-----------0---------|--0-----------0---------|
 D|--0---------------------|--------------------2---|--------------------2---|
 A|------------------------|--3---------------------|--3---------------------|
 E|--------------3---------|--------------3---------|--------------3---------|

     |           |            |           |            |           |
 e|--------0-----------0---|--------0-----------0---|--------0-----------0---|
 B|-----3-----3-----3-----3|-----3-----3-----3-----3|-----1-----1-----1-----1|
 G|--1-----------1---------|--1-----------1---------|--2-----------2---------|
 D|--------------------0---|--------------------2---|------------------------|
 A|--2---------------------|--2---------------------|--0-----------------3---|
 E|--------------0---------|--------------0---------|--------------0---------|

     |           |            |           |            |           |
 e|--------0-----------0---|--------2-----------2---|--------2-----------2---|
 B|-----1-----0-----1-----1|-----1-----1-----1-----1|-----1-----1-----1-----1|
 G|--2-----------2---------|--2-----------2---------|--2-----------2---------|
 D|------------------------|--------------------0---|--------------------0---|
 A|--0-----------------3---|--0---------------------|--0---------------------|
 E|--------------0---------|--------------2---------|--------------2---------|
[ Tab from: http://www.guitartabs.cc/tabs/a/aguado_dionisio/etude_in_c_tab.html ]
     |           |            |           |            |           |
 e|--------3-----------3---|--------3-----------3---|--------0-----------0---|
 B|-----0-----0-----0-----0|-----0-----0-----0-----0|-----1-----1-----1-----1|
 G|--0-----------0---------|--0-----------0---------|--0-----------0---------|
 D|--------------------0---|--------------------0---|--------------2-----2---|
 A|--2---------------------|--2-----------0---------|--3---------------------|
 E|--------------3---------|------------------------|------------------------|

     |           |            |           |            |           |
 e|--------0-----------0---|--------1-----------1---|--------1-----------1---|
 B|-----1-----1-----1-----1|-----3-----3-----3-----3|-----3-----3-----3-----3|
 G|--2-----------2---------|--2-----------2---------|--0-----------0---------|
 D|------------------------|--------------0---------|------------------------|
 A|--0-----------3-----0---|--------------------3---|--2-----------0-----2---|
 E|------------------------|--1---------------------|------------------------|

     |           |            |           |            |           |
 e|--------0-----------0---|--------0-----------0---|--------1-----------1---|
 B|-----1-----1-----1-----1|-----1-----1-----1-----1|-----3-----3-----3-----3|
 G|--0-----------0---------|--2-----------2---------|--2-----------2---------|
 D|--------------2-----2---|------------------------|--------------0---------|
 A|--3---------------------|--0-----------3-----0---|--------------------3---|
 E|------------------------|------------------------|--1---------------------|

     |           |            |           |            |           |
 e|--------1-----------1---|--------0-----------1---|--------0-----------1---|
 B|-----3-----3-----3-----3|-----1-----1-----3-----3|-----1-----1-----3-----3|
 G|--0-----------0---------|--0-----------0---------|--0-----------0---------|
 D|------------------------|--------2---------------|--------2---------------|
 A|--2-----------0-----2---|--3-----------------2---|--3-----------------2---|
 E|------------------------|--------------3---------|--------------3---------|

     |           |            |           |              |           |
 e|--------0-----------0---|--------0-----------0---|-----------------------||
 B|-----1-----1-----1-----1|-----1-----1-----1-----1|----1-----1-----1------||
 G|--0-----------0---------|--0-----------0---------|-----------------------||
 D|--------------------2---|--------------------2---|----2-----2-----2------||
 A|--3---------------------|--3---------------------|----3-----3-----3------||
 E|--------------3---------|--------------3---------|-----------------------||

 
Comments