Aguado Dionisio - Estudio In Am Chords & Tabs

 

Estudio In Am Chords & Tabs

Aguado Dionisio Chords & Tabs

Version: 1 Type: Tab 0 ratings
1 star 2 stars 3 stars 4 stars 5 stars
comments

Estudio In Am Tab

Allegro
~~~~~~~ means hold
---------0~~~~~~~0~~~~~~~0~~~~~~~|-0~~~~~~~------------------------|
-----1-----1---1---1---1---1---1-|---1---1-----1-------1-------1---|
---2---2-----2-------2-------2---|-----2-----2---2---2---2---2---2-|
---------------------------------|---------------------------------|
-0~~~~~~~~~~~~~~~~~~~~~~~~~~~~~~~|---------0~~~~~~~3~~~~~~~2~~~~~~~|
---------------------------------|---------------------------------|
   

---------0~~~~~~~0~~~~~~~5~~~~~~~|-5~~~~~~~4~~~~~~~~~~~~~~~--------|
-----1-----1---1---1---1---5---5-|---3---3---3---3-----3-------3---|
---2---2-----2-------2-------5---|-----4-------4-----4---4---4---4-|
---------------------------------|-----------------2~~~~~~~3~~~~~~~|
-0~~~~~~~~~~~~~~~~~~~~~~~~~~~~~~~|---------------------------------|
---------------------------------|---------------------------------|
   

---------4~~~~~~~4~~~~~~~5~~~~~~~|-7~~~~~~~~~~~~~~~----------------|
-----3-----3---3---3---3---3---3-|---5---5-----5-------5-------5---|
---4---4-----4-------4-------4---|-----7-----7---7---7---7---7---7-|
-2~~~~~~~~~~~~~~~~~~~~~~~~~~~~~~~|-----------------6~~~~~~~9~~~~~~~|
---------------------------------|---------7~~~~~~~----------------|
---------------------------------|---------------------------------|
 

---------7~~~~~~~8~~~~~~~7~~~~~~~|-5~~~~~~~~~~~~~~~~~~~~~~~~~~~~~~~|
-----5-----5---5---5---5---5---5-|---5---5-----5-------5-------5---|
---7---7-----7-------7-------7---|-----5-----5---5---5---5---5---5-|
---------------------------------|---------7~~~~~~~----------------|
-7~~~~~~~~~~~~~~~~~~~~~~~~~~~~~~~|-----------------7~~~~~~~--------|
---------------------------------|-------------------------8~~~~~~~|
 

---------5~~~~~~~5~~~~~~~7~~~~~~~|-8~~~~~~~~~~~~~~~~~~~~~~~~~~~~~~~|
-----5-----5---5---5---5---5---5-|---5---5-----5-------5-------5---|
---5---5-----5-------5-------5---|-----5-----5---5---5---5---5---5-|
---------------------------------|-------------------------5~~~~~~~|
---------------------------------|-----------------7~~~~~~~--------|
-5~~~~~~~~~~~~~~~----------------|---------8~~~~~~~----------------|
 

---------8~~~~~~~7~~~~~~~8~~~~~~~|-10~~~~~~~~~~~~~~----------------|
-----5-----5---5---5---5---5---5-|---8---8-----8-------8-------8---|
---5---5-----5-------5-------5---|-----10----10--10--10--10--10--10|
---------------------------------|-----------------9~~~~~~~12~~~~~~|
---------------------------------|---------10~~~~~~----------------|
-8~~~~~~~------------------------|---------------------------------|
 

---------10~~~~~~12~~~~~~10~~~~~~|-8~~~~~~~~~~~~~~~--------10~~~~~~|
-----8-----8---8---8---8---8---8-|---8---8-----8-------10----10--10|
---10--10----10------10------10--|-----9-----9---9---10--10----10--|
---------------------------------|---------10~~~~~~----------------|
-10~~~~~~~~~~~~~~~~~~~~~~~~~~~~~~|-----------------8~~~~~~~~~~~~~~~|
---------------------------------|---------------------------------|
 

---------8~~~~~~~--------7~~~~~~~|-8~~~~~~~~~~~~~~~~~~~~~~~~~~~~~~~|
---8---8---8---8-----6-----6---6-|---5---5-----5-------5-------5---|
-----9-------9-----7---7-----7---|-----5-----5---5---5---5---5---5-|
-----------------5~~~~~~~~~~~~~~~|---------5~~~~~~~--------5~~~~~~~|
-10~~~~~~~~~~~~~~----------------|-----------------7~~~~~~~--------|
---------------------------------|---------------------------------|
 

----------------------------------||
----------------------------------||
---------------------------------o||
---------------------------------o||
----------------------------------||
-8~~~~~~~~~~~~~~~-----------------||

 

[ Tab from: http://www.guitartabs.cc/tabs/a/aguado_dionisio/estudio_in_am_tab.html ]
||-------------------0~~~~~~~3~~~~~~~|---------------------------------|
||-----------1~~~~~~~----------------|-1~~~~~~~~~~~~~~~~~~~~~~~~~~~~~~~|
||o------0-----0---0---0---0---0---0-|---0---0-----0-------0-------0---|
||o----2---2-----2-------2-------2---|-----2-----2---2---2---2---2---2-|
||---3~~~~~~~~~~~~~~~~~~~~~~~~~~~~~~~|---------3~~~~~~~----------------|
||-----------------------------------|-----------------3~~~~~~~0~~~~~~~|
     
-----------------0~~~~~~~3~~~~~~~|-6~~~~~~~~~~~~~~~~~~~~~~~~~~~~~~~|
---------1~~~~~~~----------------|---------------------------------|
-----0-----0---0---0---0---0---0-|---3---3-----3-------3-------3---|
---2---2-----2-------2-------2---|-----5-----5---5---5---5---5---5-|
-3~~~~~~~~~~~~~~~~~~~~~~~~~~~~~~~|---------3~~~~~~~----------------|
---------------------------------|-----------------3~~~~~~~0~~~~~~~|
 

-----------------6~~~~~~~--------|---------------------------------|
---------5~~~~~~~--------3~~~~~~~|-2~~~~~~~~~~~~~~~----------------|
-----3-----3---3---3---3---3---3-|---2---2-----2-------2-----0---0-|
---5---5-----5-------5-------5---|-----5-----5---5---5---5-----7---|
-3~~~~~~~~~~~~~~~~~~~~~~~~~~~~~~~|---------0~~~~~~~4~~~~~~~7~~~~~~~|
---------------------------------|---------------------------------|
 
-----------------5~~~~~~~--------|---------------------------------|
---------5~~~~~~~--------2~~~~~~~|-3~~~~~~~~~~~~~~~----------------|
-----2-----2---2---2---2---2---2-|---2---2-----2-------2-------2---|
---5---5-----5-------5-------5---|-----3-----3---3---3---3---3---3-|
-0~~~~~~~~~~~~~~~~~~~~~~~~~~~~~~~|---------5~~~~~~~0~~~~~~~--------|
---------------------------------|-------------------------1~~~~~~~|
   -----------------0~~~~~~~1~~~~~~~|-0~~~~~~~~~~~~~~~~~~~~~~~~~~~~~~~|
---------3~~~~~~~----------------|---------------------------------|
-----2-----2---2---2---2---2---2-|---1---1-----1-------1-------1---|
---3---3-----3-------3-------3---|-----2-----2---2---2---2---2---2-|
-5~~~~~~~------------------------|-------------------------2~~~~~~~|
---------------------------------|---------0~~~~~~~4~~~~~~~--------|
 

-----------------0~~~~~~~--------|---------------------------------|
---------0~~~~~~~--------3~~~~~~~|-1~~~~~~~~~~~~~~~~~~~~~~~~~~~~~~~|
-----1-----1---1---1---1---1---1-|---2---2-----2-------2-------2---|
---2---2-----2-------2-------2---|-----2-----2---2---2---2---2---2-|
---------------------------------|-----------------0~~~~~~~3~~~~~~~|
-0~~~~~~~~~~~~~~~~~~~~~~~~~~~~~~~|---------0~~~~~~~----------------|
                         
---------------------------------|---------------------------------|
---------0~~~~~~~0~~~~~~~0~~~~~~~|-1~~~~~~~~~~~~~~~~~~~~~~~~~~~~~~~|
-----2-----2---2---2---2---2---2-|---2---2-----2-------2-------2---|
---3---3-----3-------3-------3---|-----2-----2---2---2---2---2---2-|
-5~~~~~~~~~~~~~~~~~~~~~~~~~~~~~~~|-----------------0~~~~~~~3~~~~~~~|
---------------------------------|---------0~~~~~~~----------------|
 
---------------------------------|-------------------------1~~~~~~~|
---------0~~~~~~~0~~~~~~~0~~~~~~~|-1~~~~~~~~~~~~~~~----0-----0---0-|
-----2-----2---2---2---2---2---2-|---2---2-----2-----1---1-----1---|
---3---3-----3-------3-------3---|-----2-----2---2-0~~~~~~~~~~~~~~~|
-5~~~~~~~~~~~~~~~----------------|---------0~~~~~~~----------------|
---------------------------------|---------------------------------|
 

-1~~~~~~~0~~~~~~~----------------|---------------------------------|
---1---1---1---1---------3~~~~~~~|-3~~~~~~~1~~~~~~~~~~~~~~~1~~~~~~~|
-----2-------2-------1-----1---1-|---2---2---2---2-----2-----2---2-|
-------------------2---2-----2---|-----3-------3-----3---3-----3---|
-3~~~~~~~~~~~~~~~----------------|---------------------------------|
-----------------0~~~~~~~~~~~~~~~|-1~~~~~~~~~~~~~~~1~~~~~~~~~~~~~~~|
 

---------------------------------|-------------------------0~~~~~~~|
-----------------3~~~~~~~6~~~~~~~|---------1~~~~~~~0~~~~~~~--------|
---------3~~~~~~~--3---3---3---3-|-----2-----2---2---2---2---1---1-|
-----3-----3---3-----3-------3---|---2---2-----2-------2-------2---|
---5---5-----5-------------------|-0~~~~~~~~~~~~~~~----------------|
-6~~~~~~~~~~~~~~~----------------|-----------------0~~~~~~~~~~~~~~~|
 

----------------------------------||
----------------------------------||
-2~~~~~~~~~~~~~~~----------------o||
---------------------------------o||
-3~~~~~~~~~~~~~~~-----------------||
-5~~~~~~~~~~~~~~~-----------------||
 
Comments