Agony Scene - Lines Of Suicide Chords & Tabs

 

Lines Of Suicide Chords & Tabs

Agony Scene Chords & Tabs

Version: 1 Type: Tab 0 ratings
1 star 2 stars 3 stars 4 stars 5 stars
comments

Lines Of Suicide Tab

-------------------------------------------------------------------------------
			     Lines of Suicide : The Agony Scene
Tabbed by: Jake G.
Email: GuitarAddict021@aol.com

Tuning: Drop C
*INTRO*
|----------------------------------------------------------------------------|
|----------------------------------------------------------------------------|
|----------------------------------------------------------------------------|
|----------------------------------------------------------------------------|
|------19-19-19-19-19-19-19-19------Repeat 4x---Pick Slide on end of 4th-----|
|0-0-0-----------------------------------------------------------------------|


*Verse 1*
|----------------------------------------------------------------------------|
|----------------------------------------------------------------------------|
|----------------------------------------------------------------------------|
|----------------------------------------------------------------------------|
|----------------3/5---6---3/5/3-------------------3/6-5-3/6-5---Repeat 2x---|
|0-0-0-0-0-0-0-0-3/5-0-6-0-3/5/3--0-0-0-0-0-0-0-0--3/6---3/6-----------------|
    ^palm mute^                      ^palm mute^


|----------------------------------------------------------------------------|
|----------------------------------------------------------------------------|
|----------------------------Repeat 2x---------------------------------------|
|----------------------------------------------------------------------------|
|0-0--0-0--0-0--0-0--3/5-0-6-0-3/5/3---0-0--0-0--0-0--0-0----------555-------|
|0-0--0-0--0-0--0-0--3/5-0-6-0-3/5/3---0-0--0-0--0-0--0-0--333-555-----111---|
      ^palm mute^                            ^palm mute^


*break #1*
|----------------------------------------------------------------------------|
|----------------------------------------------------------------------------|
|----------------------------------------------------------------------------|
|----------------------------------------------------------------------------|
|0-0-----0-0-----0-0-----0-0-----0-0-----0-0-----0-0-----0-0--0-0--
                    ^palm mute^


*verse 2*
|----------------------------------------------------------------------------|
|----------------------------------------------------------------------------|
|----------------------------------------------------------------------------|
|----------------------------------------------------------------------------|
|----------------3/5---6---3/5/3-------------------3/6-5-3/6-5---Repeat 2x---|
|0-0-0-0-0-0-0-0-3/5-0-6-0-3/5/3--0-0-0-0-0-0-0-0--3/6---3/6-----------------|
    ^palm mute^                      ^palm mute^


|----------------------------------------------------------------------------|
|----------------------------------------------------------------------------|
|----------------------------Repeat 2x---------------------------------------|
|----------------------------------------------------------------------------|
|0-0--0-0--0-0--0-0--3/5-0-6-0-3/5/3---0-0--0-0--0-0--0-0----------555-------|
|0-0--0-0--0-0--0-0--3/5-0-6-0-3/5/3---0-0--0-0--0-0--0-0--333-555-----111---|
[ Tab from: http://www.guitartabs.cc/tabs/a/agony_scene/lines_of_suicide_tab.html ]
*break #2*
|----------------------------------------------------------------------------|
|----------------------------------------------------------------------------|
|----------------------------------------------------------------------------|
|----------------------------------------------------------------------------|
|----------------------------------------------------------------------------|
|0-0-0-0----0-0-0-0----0-0-0-0----0-0-0-0--0-0-0-0---------------------------|


*Break #3*
|----------------------------------------------------------------------------|
|----------------------------------------------------------------------------|
|----------------------------------------------------------------------------|
|----------------------------------------------------------------------------|
|------19-19-19-19-19-19-19-19------Repeat 4x---Pick Slide on end of 4th-----|
|0-0-0-----------------------------------------------------------------------|

|---------------------------------------------------------------------------|
|---------------------------------------------------------------------------|
|---------------------------------------------------------------------------|
|---------------------------------------------------------------------------|
|---------------------------------------------------------------------------|
|0000-0000-0000000000000----------------------------------------------------|


*Verse 3*
|----------------------------------------------------------------------------|
|----------------------------------------------------------------------------|
|-----------------------------Play 3x----------------------------------------|
|-----8/7--8/7--8/7--8/7--8/7--------------8/7--8/7--8/7--8/7--8/7-----------|
|0-0--6/5--6/5--6/5--6/5--6/5---------0-0--6/5--6/5--6/5--6/5--6/5-----------|
|0-0---------------------------0-3^5--0-0---------------------------3^^^-----|

|---------------------------------------------------------------------------|
|---------------------------------------------------------------------------|
|---------------------------------------------------------------------------|
|---------------------------------------------------------------------------|
|---------------------------------------------------------------------------|
|0000-0000-000000000000-----------------------------------------------------|


*break #4*
|----------------------------------------------------------------------------|
|----------------------------------------------------------------------------|
|---------------------Repeat 2x----------------------Pinch Harmonic----------|
|--------------------------------------------------------/\------------------|
|0-0-0-0-0-0-0-0--3/5-0-6-3/5/3----0-0-0-0-0-0-0-0--3/6--5*------------------|
|0-0-0-0-0-0-0-0--3/5-0-6-3/5/3----0-0-0-0-0-0-0-0--3/6----------------------|

|----------------------------------------------------------------------------|
|----------------------------------------------------------------------------|
|-----------------------------Repeat 2x--------------------------------------|
|----------------------------------------------------------------------------|
|0-0-0-0-0-0-0-0--3/5-0-6-3/5/3----0-0-0-0-0-0-0-0--3/5-4^-3/5/3-------------|
|0-0-0-0-0-0-0-0--3/5-0-6-3/5/3----0-0-0-0-0-0-0-0--3/5----3/5/3-------------|

The outro is just an Open C pattern that you can pick up through listening to the song.
Good luck in learning its, its very easy.
Jake
Comments