Agony Scene - Habeas Corpus Chords & Tabs

 

Habeas Corpus Chords & Tabs

Agony Scene Chords & Tabs

Version: 1 Type: Tab 0 ratings
1 star 2 stars 3 stars 4 stars 5 stars
comments

Habeas Corpus Tab

   
-------------------------------------------------------------------------------
			Habeas Corpus - The Agony Scene
-------------------------------------------------------------------------------
Tabbed by: thatoneguy99999


Tuning:CGCFAD


Intro
D|---------------------------------------------------------------------------|
A|---------------------------------------------------------------------------|
F|---------------------------------------------------------------------------|
C|---------------------------------------------------------------------------|
G|5---7---8---5---4---5---7---4---5---7---8---5---8---7---4---7~-------------|
C|--0---0---0---0---0---0---0---0---0---0---0---0---0---0---0----------------|


Verse
D|---------------------------------------------------------------------------|
A|---------------------------------------------------------------------------|
F|---------------------------------------------------------------------------|
C|---------------------------------------------------------------------------|
G|--7---8---7---7h8p7--------7---8---7---7h8p7--------7---8---7---7h8p7------|
C|0---0---0---0-------8~---0---0---0---0-------7~---0---0---0---0-------8~---|

D|---------------------------------------------------------------------------|
A|---------------------------------------------------------------------------|
F|---------------------------------------------------------------------------|
C|--7---8---5---7---3---3h5p3-2~---------------------------------------------|
G|---------------------------------------------------------------------------|
C|0---0---0---0---0---0------------------------------------------------------|

D|---------------------------------------------------------------------------|
A|---------------------------------------------------------------------------|
F|---------------------------------------------------------------------------|
C|---------------------------------------------------------------------------|
G|--7---8---7---7h8p7--------7---8---7---7h8p7--------7---8---7---7h8p7------|
C|0---0---0---0-------8~---0---0---0---0-------7~---0---0---0---0-------8~---|

D|---------------------------------------------------------------------------|
A|---------------------------------------------------------------------------|
F|---------------------------------------------------------------------------|
C|--7---8---5---7---8---5---7~-----------------------------------------------|
G|---------------------------------------------------------------------------|
C|0---0---0---0---0---0---0--------------------------------------------------|


Pre-Chorus
D|---------------------------------------------------------------------------|
A|---------------------------------------------------------------------------|
F|---------------------------------------------------------------------------|
C|0-----------------------------0--------------------------------------------|
G|0---5h7p5-7/8---7h8p7---------0---5h7p5-7/8---7h8p7------------------------|
C|0---------------------8~-7~---0----------------------8~-7~-----------------|
[ Tab from: http://www.guitartabs.cc/tabs/a/agony_scene/habeas_corpus_tab.html ]
D|---------------------------------------------------------------------------|
A|---------------------------------------------------------------------------|
F|---------------------------------------------------------------------------|
C|0-----------------------------0---------------------5~-------5-------------|
G|0---5h7p5-7/8---7h8p7---------0---5h7p5-7/8---7h8p7----7h8p7---4~----------|
C|0---------------------8~-7~---0--------------------------------------------|


Chorus:
D|---------------------------------------------------------------------------|
A|---------------------------------------------------------------------------|
F|---------------------------------------------------------------------------|
C|0-0-0-0--0-0--0000---0-0-0-0--0-0--0000------------------------------------|
G|0-0-0-0--0-0--0000---0-0-0-0--0-0--0000------------------------------------|
C|0-0-0-0--0-0--0000---0-0-0-0--0-0--0000------------------------------------|
                 (After repeating once more, play intro over chorus.)           


Bridge:        3X                           On the Fourth Time
D|------------------------------------|---------------------------------------|
A|------------------------------------|---------------------------------------|
F|------------------------------------|---------------------------------------|
C|0-0-00-00123---0-0-0----------------|0-0-00-00123---0-0-0-------------------|
G|0-0-00-00123---0-0-0---5-----3------|0-0-00-00123---0-0-0---5-----3------5-----3-----|
C|000000-00123---00000-----6-5---4-3~-|0-0-00-00123---0-0-0-----6-5---4-3~---6-5---4-3~|


Outro
D|---------------------------------------------------------------------------|
A|---------------------------------------------------------------------------|
F|---------------------------------------------------------------------------|
C|---------------------------------------------------------------------------|
G|8---8---8---8---8---7h8p7-----8---8---8---8---8---7h8p7--------------------|
C|--------------------------7-----------------------------7------------------|

D|---------------------------------------------------------------------------|
A|---------------------------------------------------------------------------|
F|---------------------------------------------------------------------------|
C|---------------------------------------------------------------------------|
G|10---10---10---10---10---7h10p7-----7---7---7---7---7---5h7p5--------------|
C|--------------------------------7-----------------------------7------------|
           (Guitar 2 Plays This over previous riff):
D|---------------------------------------------------------------------------|
A|---------------------------------------------------------------------------|
F|------10--10--------10--10--------12---12---------12---12------------------|
C|0-0-----------0-0-----------0-0-------------0-0----------------------------|
G|0-0---8---8---0-0---8---8---0-0---10---10---0-0---10---10------------------|
C|0-0-----------0-0-----------0-0-------------0-0----------------------------|

D|--------------------------------------------------|
A|--------------------------------------------------|
F|------10--------10--------------------------------|
C|0-0---10--0-0---10--------------------------------|
G|0-0---8---0-0---8---------------------------------|
C|0-0-------0-0-------------------------------------|


| /  slide up
| \  slide down
| h  hammer-on
| p  pull-off
| ~  vibrato
| +  harmonic
| x  Mute note
===============================================================================
Comments