Agonizer - Melvins Chords & Tabs

 

Melvins Chords & Tabs

Agonizer Chords & Tabs

Version: 1 Type: Tab 0 ratings
1 star 2 stars 3 stars 4 stars 5 stars
comments

Melvins Tab

   
Artist - Melvins
Song - Agonizer
Album - Ozma

Drop D Tuning - D, A, D, G, B, E

Intro
            1,3|             2|     4|
|------|-------|--------------|------|--------------------------------------|
|------|-------|--------------|------|--------------------------------------|
|------|-------|--------------|------|--------------------------------------|
|------|-------|--------------|------|---------10---------------------------|
|-11-0-|-6-7~~-|-12-0-5-7-6~~-|-12~~-|-0-0-0------11~~-0-0-0-0-0-6-12-0-0-0-|
|-11-0-|-6-7~~-|-12-0-5-7-6~~-|-12~~-|-0-0-0-0---------0-0-0-0-0-6-12-0-0-0-|
                                     | PM...           PM.....        PM...
[ Tab from: http://www.guitartabs.cc/tabs/a/agonizer/melvins_tab.html ]
|---------------------------------|
|---------------------------------|
|---------------------------------|
|---------------------------------|
|-7-6~~-11-5-6-0-11-0-6-7-13-12~~-|
|-7-6~~-11-5-6-0-11-0-6-7-13-12~~-|

Verse

|-------------------------------------------------------|
|-------------------------------------------------------|
|-------------------------------------------------------|
|-------------------------------------------------------|
|-0-0-0-0---0-6-4-4-4-4-5-0-0-0-0---0-0-0---0-6---5---0-|
|-0-0-0-0---0-6-4-4-4-4-5-0-0-0-0---0-0-0---0-6---5---0-|
  PM...                     PM...   PM...
  Play x 5

Outro

|---------------------------------------|-------|
|---------------------------------------|-------|
|---------------------------------------|-------|
|---7~~---7~~---7-----------8---8---8~~-|-------|
|-5-----5-----5---5-0-0-0-6-------------|-0-0-0-|
|-------------------0-0-0---------------|-0-0-0-|
                    PM...               | PM...
  Play x 2                              |


fRANC
Comments