Agent Orange - Breakdown Chords & Tabs

 

Breakdown Chords & Tabs

Agent Orange Chords & Tabs

Version: 1 Type: Bass Tab

Breakdown Bass Tab

Band: Agent Orange
Title: Breakdown
Tuning: Standard EADG
e-mail: iamtheowl133@aol.com

Intro
G]---------------------------------------|
D]---------------------------------------|
A]--8\-----------------------------------|
E]---------------------------------------|

Verse
G]---------------------------------------|
D]---------------------------------------|
A]---6-6---6-6---------------------------| x4
E]-------6------6---444446666/-----------|

Chorus
G]---------------------------------------|
D]---------------------------------------|
A]----------666668888888888--------------| x4
E]---66666-------------------------------|
[ Tab from: http://www.guitartabs.cc/tabs/a/agent_orange/breakdown_btab.html ]
Bridge
G]---------------------------------------|
D]---------------------------------------|
A]---------6-----------6------6-----6----| x1
E]---6-----------6--------6------6-------|

G]---------------------------------------|
D]---------------------------------------|
A]----6-6-6-6-6-6-6-6--------------------| x1
E]---6-6-6-6-6-6-6-6---------------------|

Verse 2
G]---------------------------------------|
D]---------------------------------------|
A]---6-6---6-6---------------------------| x3
E]-------6------6---444446---------------|

G]---------------------------------------|
D]---------------------------------------|
A]---6-6---6-6--------------------6\-----| x1
E]-------6------6---444446666------------|

Order
Intro x1
Verse x2
Chorus x1
Verse x1
Chorus x1
Verse x1
Bridge x1
Intro x1
Verse x1
Chorus x1
Verse 2 x 1