Agent Orange - Bloodstains Chords & Tabs

 

Bloodstains Chords & Tabs

Agent Orange Chords & Tabs

Version: 1 Type: Bass Tab

Bloodstains Bass Tab

Tabbed by: misfits_phreek@yahoo.com

Intro: (7x)
G|-------------|
D|-------------|
A|-------------|
E|--22222-0-3--|

Verse:
G|-------------------------------------------------------------|
D|-------------------------------------------------------------|
A|-------------------------------------------------------------|
E|-22222-0-3---000000-1----000000-3----22222-0-3----22222-0-3--|

Intro: (3x)
G|-------------|
D|-------------|
A|-------------|
E|--22222-0-3--|

Verse:
G|-------------------------------------------------------------|
D|-------------------------------------------------------------|
A|-------------------------------------------------------------|
E|-22222-0-3---000000-1----000000-3----22222-0-3----22222-0-3--|

Chorus:                       2x
G|-----------------------|-----------|---------------------------------------|
D|-----------------------|-----------|---------------------------------------|
A|-----------------------|-----------|---------------------------------------|
E|-0000-0000-0000-0000---|-22222-0-3-|---0000-0000-0000-0000----22222-0-3-2--|

Intro: (7x)
G|-------------|
D|-------------|
A|-------------|
E|--22222-0-3--|

Verse:
G|-------------------------------------------------------------|
D|-------------------------------------------------------------|
A|-------------------------------------------------------------|
E|-22222-0-3---000000-1----000000-3----22222-0-3----22222-0-3--|

Intro: (3x)
G|-------------|
D|-------------|
A|-------------|
E|--22222-0-3--|
[ Tab from: http://www.guitartabs.cc/tabs/a/agent_orange/bloodstains_btab.html ]
Verse:
G|-------------------------------------------------------------|
D|-------------------------------------------------------------|
A|-------------------------------------------------------------|
E|-22222-0-3---000000-1----000000-3----22222-0-3----22222-0-3--|

Chorus:                       2x
G|-----------------------|-----------|----------------------------------------|
D|-----------------------|-----------|----------------------------------------|
A|-----------------------|-----------|----------------------------------------|
E|-0000-0000-0000-0000---|-22222-0-3-|---0000-0000-0000-0000----222222-0-3-2--|

Intro: (3x)
G|-------------|
D|-------------|
A|-------------|
E|--22222-0-3--|

Verse:
G|-------------------------------------------------------------|
D|-------------------------------------------------------------|
A|-------------------------------------------------------------|
E|-22222-0-3---000000-1----000000-3----22222-0-3----22222-0-3--|

Intro: (3x)
G|-------------|
D|-------------|
A|-------------|
E|--22222-0-3--|

Verse:
G|-------------------------------------------------------------|
D|-------------------------------------------------------------|
A|-------------------------------------------------------------|
E|-22222-0-3---000000-1----000000-3----22222-0-3----22222-0-3--|

Chorus:                       2x
G|-----------------------|-----------|----------------------------------------|
D|-----------------------|-----------|----------------------------------------|
A|-----------------------|-----------|----------------------------------------|
E|-0000-0000-0000-0000---|-22222-0-3-|---0000-0000-0000-0000----222222-0-3-2--|

Pretty straight-forward tab. Listen to/and play with the song... then you'll catch on very quickly.