Age Of Mythology - Chocolate Outline Chords & Tabs

 

Chocolate Outline Chords & Tabs

Age Of Mythology Chords & Tabs

Version: 1 Type: Tab 0 ratings
1 star 2 stars 3 stars 4 stars 5 stars
comments

Chocolate Outline Tab

From: "cholaq" < colak1987@yahoo.com >

Age Of Mythology - Chocolate Outline

e--8--7--8--8/10--8~-----------------------
B------------------------------------------
G------------------------------------------
D------------------------------------------ x2
A------------------------------------------
E------------------------------------------

e--7--7/8----------------------------------
B----------10--9--10~----------------------
G------------------------------------------
D------------------------------------------ 
A------------------------------------------
E------------------------------------------
[ Tab from: http://www.guitartabs.cc/tabs/a/age_of_mythology/chocolate_outline_tab.html ]
e--8--7--8--8/10--8~-----------------------
B------------------------------------------
G------------------------------------------
D------------------------------------------ x2
A------------------------------------------
E------------------------------------------

e--7--7/8----------------------------------
B----------10--9--10~----------------------
G------------------------------------------
D------------------------------------------ 
A------------------------------------------
E------------------------------------------

e------------------------------------------
B--9--10--9--10----------------------------
G------------------------------------------
D------------------------------------------ 
A------------------------------------------
E------------------------------------------

Thanks, Shuttlecock!...

P.S: It's better to use a pick...
Comments