Age Of Electric - Ugly Chords & Tabs

 

Ugly Chords & Tabs

Age Of Electric Chords & Tabs

Version: 1 Type: Tab 0 ratings
1 star 2 stars 3 stars 4 stars 5 stars
comments

Ugly Tab

Song: "Ugly" by "The Age Of Electric"
Album: "the age of electric"(1994,1995)
Transcription by: James Hummel
Email: jagstone@hotmail.com

Sometimes there are two guitars playing but this is the way I
like to play it. Anyway, I'm pretty sure I tabbed it out right
but if you have any Q's, comments, corrections, or additions 
go ahead and e-mail them to me.


Intro:
E|-----|-----|      |------------|
B|--0--|--4--|      |-5~~3~~2~~~~|
G|--1--|--6--|  4x  |------------|
D|--2--|--6--| Then |------------|4x
A|--2--|--4--|      |------------|
E|--0--|-----|      |------------|

Verse:
E|-----|-----|
B|--0--|--4--|******************************************
G|--1--|--6--|* He doesn't really strum the chords. He *
D|--2--|--6--|* comes in and out of the song strumming *
A|--2--|--4--|* them every once in a while.            *
E|--0--|-----|******************************************

Pre-Chorus:
E|-----|-----|-----|-----|-----|-----|-----|---------------|
B|-----|-----|-----|-----|-----|-----|-----|---------------|
G|-----|--4--|-----|-----|-----|--4--|-----|-7-7--6-6--x-6-|
D|--4--|--4--|--6--|--7--|--4--|--4--|--6--|-7-7--6-6--x-6-|
A|--4--|--2--|--6--|--7--|--4--|--2--|--6--|-5-5--4-4--x-4-|
E|--2--|-----|--4--|--5--|--2--|-----|--4--|-----------x-4-|

E|---------------|-----|-----|
B|---------------|-----|-----|
G|-7-7--6-6--x-4-|--4--|--4--|
D|-7-7--6-6--x-4-|--4--|--4--|
A|-5-5--4-4--x-2-|--2--|--2--|
E|---------------|-----|-----|

Chorus:
E|-----|-----|-----|-----|      |-----|-----|-----|-----|
B|-----|-----|-----|-----|      |-----|-----|-----|-----|
G|-----|--2--|-----|-----|  2x  |-----|-----|-----|-----|
D|--2--|--2--|--4--|--4--| Then |-----|-----|-----|-----|
A|--2--|--0--|--4--|--4--|      |-----|-----|-----|-----|
E|--0--|-----|--2--|--2--|      |--0--|--4--|--5--|--5--|
[ Tab from: http://www.guitartabs.cc/tabs/a/age_of_electric/ugly_tab.html ]
E|-----|-----|-----|-----|-------------|
B|-----|-----|-----|-----|-------------|
G|--1--|--4--|--2--|--2--|--7-7-6-4-6--|
D|--2--|--4--|--2--|--2--|--7-7-6-4-6--|
A|--2--|--2--|--0--|--0--|--5-5-4-2-4--|
E|--0--|-----|-----|-----|-------------|

Bridge:
E|--------------------------------------------------------|
B|--------------------------------------------------------|
G|-2---2-x----2--2-2-x----9-9-7-7-5-5-4-4-9-9-7-7-5-4~b~r-|
D|-2---2-x-5--2--2-2-x-5----------------------------------|
A|-0---0-x-5--0--0-0-x-5----------------------------------|
E|---------3-----------3----------------------------------|

E|--------------------------------------------------------|
B|----------------------------------------6-6-5-5-3-3~b~r-|
G|-2---2-x----2--2-2-x----9-9-7-7-5-5-4-4-----------------|
D|-2---2-x-5--2--2-2-x-5----------------------------------|
A|-0---0-x-5--0--0-0-x-5----------------------------------|
E|---------3-----------3----------------------------------|

E|-------------------------------8---8-8-10---10-10-11-12-|
B|----------------5---7---8-------------------------------|
G|-2---4---5----------------------------------------------|
D|--------------------------------------------------------|
A|--------------------------------------------------------|
E|--------------------------------------------------------|

E|-----14--------------------|
B|---------------------------|
G|---------------------------|
D|---------------------------|
A|---------------------------|
E|---------------------------|

Outro:
E|--------------------------------------------------------------|
B|--------------------------------------------------------------|
G|--------------------------------------------------------------|
D|-11-11-9-9-7-7-6-6---11-11-9-9-7-7-6-6---11-11-9-9-7-6-7-4-6-2|
A|--------------------------------------------------------------|
E|--------------------------------------------------------------|
Comments