Age Of Electric - Scare Myself Chords & Tabs

 

Scare Myself Chords & Tabs

Age Of Electric Chords & Tabs

Version: 1 Type: Bass Tab 0 ratings
1 star 2 stars 3 stars 4 stars 5 stars
comments

Scare Myself Bass Tab

   
Scare Myself-The Age of Electric
Tabbed By Yerp
rhergott@bserv.com email me with any comments or questions.
Tuning: E A D G 

Main riff
G|-------------------|
D|-------------------|
A|-----3333----------|
E|-0000----3333-1111-|

Verse Riff 
(I seriously didn't feel like tabbing out the verse, there are variations,
but they aren't too hard. I just improvise.)
G|----|
D|----|
A|--3-|
E|-3--| 
 
Sometimes playing:
(play around with this)

G|-5-4--------|
D|-----5------|
A|----------3-|
E|--------3---|
Or:
G|------------|
D|------------|
A|-3h5------3-|
E|----3-0-3---|
 
Then play the main riff oh so many times. 
Then the verse riffs.
There is a slight pause and then you play the fun part: 
I really tried here people...
[ Tab from: http://www.guitartabs.cc/tabs/a/age_of_electric/scare_myself_btab.html ]
G|---------------------------------2---|
D|-----7--------9--------3----3------3-|
A|---7---7----9---9--------------------|
E|-5--------7-------1-1-----1----1-----|
   5 & 7 (on E) I think you bend. John 
   does this thing and it sounds really 
   cool it might be a bend, I'm not sure. 

G|----------------------------2---5---|
D|-----7--------9--------3------3---3-|
A|---7---7----9---9-------------------|
E|-5--------7-------1-1----1----------|

G|-----------------------------2---2---|
D|-----7--------9--------3-------3---3-|
A|---7---7----9---9--------------------|
E|-5--------7-------1-1-----1----------|

G|---------------------------------2---|
D|-----7--------9--------3----3------3-|
A|---7---7----9---9--------------------|
E|-5--------7-------1-1-----1----1-----|

G|-------------7-------9------------|
D|-----7-----7---7---9---9----------|
A|---7---7-5-------7-------8---8h10-|
E|-5-------------------------8------|

G|-------------7-------9------------|
D|-----7-----7---7---9---9----------|
A|---7---7-5-------7-------8---8h10-|
E|-5-------------------------8------|

Then it's quiet, you can probably play the main riff quietly in the background.
The song comes back in loudly, and just play the main riff until the end.


Comments