Age Of Electric - Remote Control Chords & Tabs

 

Remote Control Chords & Tabs

Age Of Electric Chords & Tabs

Version: 1 Type: Bass Tab 0 ratings
1 star 2 stars 3 stars 4 stars 5 stars
comments

Remote Control Bass Tab

   
Remote Control-The Age Of Electric
By Yerp 
rhergott@bserv.com email me with any comments or questions.
Tuning: E A D G

This song is very easy to play. Listen for timing for the riffs.

Riff 1 
G|----------------|
D|----------------|
A|--333-1-3333----|
E|------------3---|

Riff 1-2
G|------------------------------|
D|------------------------------|
A|---------------------------7/-|
E|-444-4-44444-444444-44444-----|

Back to riff1.

Riff 2
G|----------------------|
D|----------------------|
A|----------------------|
E|-11111111-11111111....|
[ Tab from: http://www.guitartabs.cc/tabs/a/age_of_electric/remote_control_btab.html ]
Riff 3- Chorus
G|---------------------|
D|---------------------|
A|------6666-----------|
E|-4444------666-66666-|

Play the chorus several times.
Repeat what you just played from the very beginning.
After he sings "where's my self control?",
play the first half of the chorus then go directly to this:

G|------|
D|------|{no rhythm tabbed, just play the C for a bunch, the the Eb then the F}
A|--6-8-|
E|-8----|

Then play this a couple times:

G|-------------------|
D|-------------------|
A|-3333-6666---------|
E|----------44444444-|

Play riff 1 twice and end on:

G|---------|
D|---------|
A|-55-666--|
E|-------4-|
Comments